» » »

House Of 1000 Voices Tabs (ver.1)

Artists:  A B C D E F G H I J K L M N O P Q R S T U V W X Y Z # 

House Of 1000 Voices Tabs (ver.1)

Candlemass
Rating:
0/5 (0 votes)

Hard to play? Try these video lessons and learn fast.
                Candlemass - Death Magic Doom - 05 - House of a Thousand Voices

Notes: Learnt on a 7-string standard tuned guitar and tabbed after it.
Can very much be played on a B / D tuned 6 string.
Not tabbed the solos, I enjoy improvising them alot more.
Enjoy!


Intro / Verse 00:00 - 01:02

e|-------------------------------------------------------------------|
b|-------------------------------------------------------------------|
G|------------4-4----------------------------------------------------|
D|--6-4-6-----4-4-4-2------6-4-6---4-4-2-2---------------------------|
A|--6-4-6-----2-2-4-2------6-4-6---4-4-2-2---------------------------|
E|--4-2-4---------2-0------4-2-4---2-2-0-0---------------------------|
B|-------------------------------------------------------------------|

........inside the house that burned...... 
                ///////////
........silence of a thousand voices......

Stick 1           -1-2-1-3
         1                   2                     3
e|--------------|----------------------|-----------------------------|
b|--------------|----------------------|-----------------------------|
G|--------------|----------------------|-----------------------------|
D|--------------|----------------------|-----------------------------|
A|--------5-[5]-|----------------------|------5--7-------------------|
E|--------------|----------1---1-------|------5--7-------------------|
B|-2----3-------|-2-----3----3---3---2-|--2---3--5-------------------|

Verse again: .....in the ruins a blackened....
                       /////////////
             ....checked in you never leave....

EntryChorus / Chorus    - 01:48  

e|-------------------------------------------------------------------|
b|-------------------------------------------------------------------|
G|----1--1-------------------0-0-------------------------------------|
D|-----3--3-3-----3-----------3--------------------------------------|
A|--3------3---------------------------------------------------------|
E|-1------------4--4-------------------------------------------------|
B|-------------2----------1------------------------------------------|
 [  F       ] [   C#   ]  [   C   ]

Chorus - 01:55 ....in the house of a thousand voices....
                             ////////////
               ....in the mirror she see their faces....

e|-------------------------------------------------------------------|
b|-------------------------------------------------------------------|
G|----1--1-------------------0-0-------------------------------------|
D|-----3--3-3-----3-----------3--------------------------------------|
A|--3------3---------------------------------------------------------|
E|-1------------4--4-------------------------------------------------|
B|-------------2----------1------------------------------------------|
 [  F       ] [   C#   ]  [   C   ]


Solo 02:26 
Backing guitar (Chorus riff: F    C#    C)

Breakoff solo bit: 02:42 -

e|-------------------------------------------------------------------|
b|-------------------------------------------------------------------|
G|-------------------------------------------------------------------|
D|-3-----6----5------------------------------------------------------|
A|-3-----6----5-------4-----3----------------------------------------|
E|-1-----4----3-------4-----3----------------------------------------|
B|--------------------2-----1----------------------------------------|
   F5    G#5  G5      C#5   C5


Stick 2 - 03:13:

e|-------------------------------------------------------------------|
b|-------------------------------------------------------------------|
G|-------------------------------------------------------------------|
D|-------------------------------------------------------------------|
A|-4---6-7---9-10---7-6-7-4--------repeat----------------------------|
E|-4---6-7---9-10---7-6-7-4------------------------------------------|
B|-2---4-5---7-8----5-4-5/2------------------------------------------|

.....MURDER AND DEAAAAATH

Stick 3 03:41 (bass first time solo)
First off muted, then unmuted, then 5ths going down to low B. Listen to song.

                1                                  1.2    1.3
e|---------------------------------------------|-------|-------------|
b|---------------------------------------------|-------|-------------|
G|---------------------------------------------|-------|-------------|
D|---------------------------------------------|-------|-------------|
A|---------------------------7-7-7-6-6-6-5-5-5-|-------|-6-6-6/0-----|
E|---------------7-7-7-6-6-6-------------------|-7-7-7-|-------------|
B|---4-4-4-5-5-5-------------------------------|-------|---------4---|

04:49
VERSE: until ...checked in you never leave....

then CHORUS
then SOLO BACKING with Breakoff

OUTRO 07:11 all in 5's 

[11---9] and so forth
[9----7]

e|-------------------------------------------------------------------|
b|-------------------------------------------------------------------|
G|-------------------------------------------------------------------|
D|-------------------------------------------------------------------|
A|-------------------------------------------------------------------|
E|--9-9-9-7-9-7-------------9-9-9-7-9-7------------------------------|
B|--------------9-7-9-7-----------------9---7-9-10-------------------|

e|-------------------------------------------------------------------|
b|-------------------------------------------------------------------|
G|-------------------------------------------------------------------|
D|-------------------------------------------------------------------|
A|-------------------------------------------------------------------|
E|--11-11-11-9-11-9---------------11-11-11-9-11-9--------------------|
B|-------------------11-9-11-9--------------------11---9-11-12-------|

07:39 final outro:

e|-------------------------------------------------------------------|
b|----------1--------------------------------------------------------|
G|------1-----1------------------------------------------------------|
D|----3---3----3--------3--------2-----------------------------------|
A|--3-----------3-----4--------3---3---------------------------------|
E|------------------4-------4-3--------------------------------------|
B|-------------------------------------------------------------------|


Parts and lyrics:

Intro
Verse:     Inside the house that burned
           No exit, no return
           A place of oak and ashes
           The silence of a 1000 voices
Stick 1
           In the ruins of blackened wood
           The house of orphans stood
           No play, no childhood existed
           You checked in, you never left

Chorus:    In the house of a 1000 voices
           There's the hall of a 1000 devils
           Broken dreams, no hopes no choices
           Just a box full of evil

           There's a room that no-one has seen
           in the walls, a 1000 screams
           Little voices, toys and laces
           In the mirrors you see their faces
Solo 1:
Stick 2:   Stones and thrash, grass and berries
           In the yard, there's something buried
           There's a smell of somethings that's wrong
           Something is wrong

           Tiny feet and tiny shoes
           In the shadows they're still running loose
           Innocent to murder and death
           Murder and death 
Stick 3:
Verse 2:   In the ruins of blackened wood
           The house of orphans stood
           No play, no childhood existed
           You checked in, you never left

Chorus:    In the house of a 1000 voices
           There's the hall of a 1000 devils
           Broken dreams, no hopes no choices
           Just a box full of evil

           There's a room that no-one has seen
           in the walls, a 1000 screams
           Little voices, toys and laces
           In the mirrors you see their faces
Solo 2:
Outro:
Final outro:
            
Hard to play? Try these video lessons and learn fast. | Correct




comments powered by Disqus
↑ Back to top | Tablatures and chords are parodies/interpretations of the original songs. You may use it for private study, scholarship, research or language learning purposes only