» » »

Candlemass, Epistle Tabs (ver.1)

Artists:  A B C D E F G H I J K L M N O P Q R S T U V W X Y Z # 

Epistle Tabs (ver.1)

Candlemass Tabs
 Rating:
4/5 (4 votes)
Epistle lessons Tabs too difficult? Try these video lessons and learn fast
                CANDLEMASS
'Epistle 81'


EPISTLE 81 (Candlemass)
     F5  A#5             C5           A#5  
||-----|----------------------------|-----------------|
||*----|----------------------------|-----------------|
||-----|-3---------------5----------|-3---------------|
||---3-|-3---------------5----------|-3---------------|
||*--3-|-1---------------3----------|-1---------------|
||---1-|----------------------------|-----------------|
          Mark how our shadow  mark  Movits mon fre're 
          Even        desirous and   modest abode
          The little bell echoes the great bell groans
 
  A#5         F#5         F5          
|-----------------------|--------------|
|-----------------------|--------------|
|-3---------------------|--------------|
|-3-----------4---------|-3----------3-|
|-1-----------4---------|-3----------3-|
|-------------2---------|-1----------1-|
   One small darkness encloses
   Under the sighing      branches
   Roved in the door the precentor
  A#5             C5           A#5         F#5 F5  
|----------------------------|-------------------|
|----------------------------|-------------------|
|-3---------------5----------|-3-----------------|
|-3---------------5----------|-3-----------4---3-|
|-1---------------3----------|-1-----------4---3-|
|----------------------------|-------------2---1-|
   How gold and purple that  shovel      there
  Where time and death a      marriage forebode
   Noisome with quiristers    prayerful   moan
  A#5                  D#5        C#5      A#5  C5  
|--------------------------------|-----------------|
|--------------------------------|-----------------|
|-3--------------------8------8--|-6--------3--3-5-|
|-3--------------------8------8--|-6--------3--3-5-|
|-1--------------------6------6--|-4--------1--1-3-|
|--------------------------------|-----------------|
    To rags and       rubbish di-spo-      ses
    'Twixt beauty and uglin-  ess ash-      es
     Blesses          those  who   e-      nter
  C#5                     G#5                  A#5                   
|-----------------------|--------------------|------------------------|
|-----------------------|--------------------|------------------------|
|-6-------------------6-|--------------------|-3--------------------3-|
|-6-------------------6-|-6----------------6-|-3--------------------3-|
|-4-------------------4-|-6----------------6-|-1--------------------1-|
|-----------------------|-4----------------4-|------------------------|
   Charon beckons from tumultous waves         Then trice this ancient
   To thee ne're jealousy findeth her way      Nor happiness footstep  
   The way to this templed city of tombs       Climbs   amid     roses
  F5                   A#5                                F5
|--------------------|----------------------------------|-------------|
|--------------------|----------------------------------|-------------|
|--------------------|-3---------------------------3----|-------------|
|-3----------------3-|-3---------------------------3----|-3---------3-|
|-3----------------3-|-1---------------------------1----|-3---------3-|
|-1----------------1-|----------------------------------|-1---------1-|
  digger of graves      for thee ne're grapeskin shall  glister
  swift to stray        flitteth amid            these   barrows
  yellowing blooms      fragments of          mouldering briers 
  A#5              C5         A#5            F#5   F5
|---------------------------|------------------------|
|---------------------------|------------------------|
|-3----------------5--------|-3----------------------|
|-3----------------5--------|-3--------------4-----3-|
|-1----------------3--------|-1--------------4-----3-|
|---------------------------|----------------2-----1-|
   Wherefore my  Movits come help me     to raise
   E'en enmity    armed as  thou seest this day
   Till black clad each mourner his station assumes 
                             1,2 times
  A#5            D#5          F5        A#5
|---------------------------|---------|-----------||
|---------------------------|---------|----------*||
|-3--------------8----------|---------|-3---------||
|-3--------------8----------|-3-----3-|-3---------||
|-1--------------6----------|-3-----3-|-1--------*||
|---------------------------|-1-----1-|-----------||
   a gravestone over our    |si-       ster
   piously     breaketh her | a-       rrow
   bows there   deeply   in |
				    |3rd time: 	
                            | 
                            |--------------------||
			    |--------------------||
			    |--------------3-----||
			    |--------------3-----||
			    |--4--3--1--0--1-----||
			    |--------------------||
			       te-        ars
Solo:
|----------------------------------------10-9h10p9----------------|
|----------------------------------------------------12-11-12-----|
|-~~---------------------------------10---------------------------|
|-8---7\8-10\11-11\13-13\16-15--8-10------------------------------|
|-----------------------------------------------------------------|
|-----------------------------------------------------------------|

|--------------------------------------------------|
|-----------------------------------------\7--6----|
|-10--------~~-6---6-5-6---5h6p5-------------------|
|----11-10-8-----------------------8-7-8-----------|
|--------------------------------------------------|
|--------------------------------------------------|
            
Submit corrections

comments powered by Disqus
↑ Back to top | Candlemass Tabs for Epistle. Lyrics for acoustic guitar and electric guitar. Tablatures and chords are parodies/interpretations of the original songs. You may use it for private study, scholarship, research or language learning purposes only