>
 >
Destroyer

Destroyer Guitar Tabs

Candlemass - Destroyer chords, tabs, tablatures, lyrics

Guitar lessons | Add/correct | Request | Top 50 tabs Artists:  A B C D E F G H I J K L M N O P Q R S T U V W X Y Z 0-9

Destroyer Guitar Tabs – Candlemass

CD, Sheet music, Poster

Do you like Destroyer? Share with your friends now
Tabs
-------------------------------------------------------------------------------
-------------------------------------------------------------------------------
Band: Candlemass


Hey guys, this is my tab for this song, and I think it sounds pretty decent. If 
you have any comments, questions, or mistakes to point out, please feel free 
to leave a message here, or send me an email! :D


Tuning: C#


Riff 1
|-----------------------------------|
|-----------------------------------|
|-----------------------------------| x6
|--2---2-3-2---2-3-2---2-3-2---2-5--|
|--2---2-3-2---2-3-2---2-3-2---2-5--|
|--0---0-1-0---0-1-0---0-1-0---0-3--|


Riff 2
|------------------------------------------|
|------------------------------------------|
|--4v-------4v-------4v--------------------| x3
|-------2--------2--------2----------------|
|-------2--------2--------2----2-----------|
|-------0--------0--------0-------0--4--1--|


Riff 1 x 3


Riff 3 (Guitar 1)
|--------------------------------------------------------|
|--------------------------------------------------------|
|--9/11---------9/12---------------9/11---------8-88888--| x4
|--9/11---------9/12---------------9/11---------8-88888--|
|--7/9--999999--7/10-101010101010--7/9--9999997-6-66666--|
|--------------------------------------------------------|
        ......       . . . . . .        .......

Riff 3 (Guitar 2)
|---------------------------------------------|
|---------------------------------------------|
|------------------------------------8-88888--| x4
|------------------------------------8-88888--|
|------------------------------------6-66666--|
|--0h2-222222-0h3-333333-0h2-2222220----------|
       ......     ......     .......

Riff 4
|------------------------------------|
|------------------------------------|
|--2---4-5---8-9------8---8-5---5-4--| x2
|--2---4-5---8-9------8---8-5---5-4--|
|--0---2-3---6-7----7-6---6-3---3-2--|
|------------------------------------|


Riff 5
|-----------------|
|-----------------|
|--5---4---3---2--| x1
|--5---4---3---2--|
|--3---2---1---0--|
|-----------------|


Riff 6
|--------------|
|--------------|
|-----------2--| x3
|--3--2--5--2--|
|-----------0--|
|--------------|


Riff 7
|--------------|
|--------------|
|-----------2--| x1
|--3--2-----2--|
|--------1--0--|
|--------------|


Riff 6 x 3

Riff 7 x 1


Riff 8
|------------------------------------------------------|
|------------------------------------------------------|
|--2---10-9---10-9---10-12-12---2---10-9---10-9---3-3--| x4
|--2---10-9---10-9---10-12-12---2---10-9---10-9---3-3--|
|--0---8--7---8--7---8--10-10---0---8--7---8--7---1-1--|
|------------------------------------------------------|


Riff 1 x 4

Riff 3 x 4

Riff 4 x 4

Riff 5 x 1


After a brief pause, and a little drum fill, guitar 1 plays this riff:


Riff 9 (Guitar 1)
|---------------------|
|---------------------|
|---------------------|
|---------------------|
|--1-2-4-1-2----------|
|--------------2---3--|


After a few measures, guitar 2 then comes in and plays this:


Riff 9 (Guitar 2)
|---------------------|
|---------------------|
|----------4----------|
|----------4---4---5--|
|--1-2-4-1-2---4---5--|
|--------------2---3--|


Then, while guitar 2 continues to play riff 9, guitar 1 plays this:


Riff 10a
|--------------------|
|--------------------|
|------6-------------| x3
|--8-9---8-9---5--4--|
|--------------------|
|--------------------|


Riff 10b
|-----------------------|
|-----------------------|
|------6----------------| x1
|--8-9---8-9---11b-11v--|
|-----------------------|
|-----------------------|


Riff 10a x 3


Riff 10c
|-----------------------|
|-----------------------|
|------6-------11b-11v--| x1
|--8-9---8-9------------|
|-----------------------|
|-----------------------|


Riff 10d
|--------------------|
|--------------------|
|------6-------------| x3
|--8-9---8-9---4--5--|
|--------------------|
|--------------------|


Riff 10b x 1

Riff 10d x 3

Riff 10c x1

After that, the song fades away with a closing solo.

And that's just about it!


************************************

| /   slide up
| \   slide down
| h   hammer-on
| p   pull-off
| ~   vibrato
| +   harmonic
| x   Mute note
| b   Bend
| pb  Pre-bend
| br  Bend release
| pbr Pre-bend release
| brb Bend release bend

************************************





Comments


Popular Candlemass tabs & chords
At The Gallows End Bass Tabs
Black Dwarf Bass Tabs
A Cry From The Crypt Tabs
Black Stone Wielder Tabs
Dark Reflections Tabs
Demons Gate 1 Tabs
Emperor Of The Void Tabs
If I Ever Die Tabs
Incarnation Of Evil Tabs
The Bells Of Acheron Tabs


Song lyrics



↑ Back to top | Tablatures and chords are parodies/interpretations of the original songs. You may use it for private study, scholarship, research or language learning purposes only
© 2014 AZChords.com Contact us | Privacy policy | DMCA | Add/correct tabs | Request tabs | Top 50 tabs