» » »

Candlemass, Clearsight Tabs (ver.1)

Artists:  A B C D E F G H I J K L M N O P Q R S T U V W X Y Z # 

Clearsight Tabs (ver.1)

Candlemass Tabs
 Rating:
4/5 (4 votes)
Clearsight lessons Tabs too difficult? Try these video lessons and learn fast
1
                ------------------------------------------------------------------------------
------------------------------------------------------------------------------
Band: Candlemass


Hey everyone, this is my tab for this song, and for the most part it seems 
pretty accurate to me. The only part that I'm not really certain about is all 
of the "riff 4" stuff, but hopefully it's at least fairly close. I also didn't 
tab the solos, but all of the rhythm parts are here. Hopefully you guys find 
this tab to be helpful! If you have any comments, questions, or mistakes to 
point out, please feel free to leave a message here, or to send me an email! :D


Tuning: C#


Riff 1
|-----------------------------------------------------|
|-----------------------------------------------------|
|-----------------------------------------------------| x4
|---------------------------------------------(8)-(6)-|
|---------------------------------------------(8)-(6)-|
|--0-000--1/5-1--0-000--1/5-1--0-000--1/5-1p0--6---4--|
   . ...         . ...         . ...

[Note: If you have two guitars playing this, guitar 1 
plays the 6th and 4th frets at the end as single notes, 
while guitar 2 plays them as the chords shown.]


Riff 2
|---------------------------|
|---------------------------|
|--2----3-2----3-2----5--3--| x2
|--2----3-2----3-2----5--3--|
|--0----1-0----1-0----3--1--|
|---------------------------|


Riff 3a
|-------------------------|
|-------------------------|
|-------------------------| x1
|--0---7---8-10-8-7--7h8--|
|-------------------------|
|-------------------------|

Riff 3b
|--------------------|
|--------------------|
|--------------------| x1
|--0---7---8-10-8-7--|
|--------------------|
|--------------------|


Riff 3a x 1

Riff 3b x 1

Riff 1 x 4

Riff 2 x 2

Riff 3a x 1

Riff 3b x 1

Riff 3a x 1

Riff 3b x 1

Riff 1 x 4


Riff 4a (Guitar 1)
|----------------------------------|
|----------------------------------|
|-----9-9-----7-7-----6-6-----5-4--| x1
|----------------------------------|
|--7-------5-------4-------3-------|
|----------------------------------|

Riff 4a (Guitar 2)
|----------------------------------|
|----------------------------------|
|--9-------7-------6-------5-------| x1
|--9-------7-------6-------5-------|
|--7--7-7--5--5-5--4--4-4--3--3-2--|
|----------------------------------|

Riff 4b (Guitar 1)
|----------------------------------|
|----------------------------------|
|-----9-9-----7-7-----6-6----------| x1
|----------------------------------|
|--7-------5-------4-------3*------|
|----------------------------------|

Riff 4b (Guitar 2)
|----------------------------------|
|----------------------------------|
|--9-------7-------6-------5-------| x1
|--9-------7-------6-------5-------|
|--7--7-7--5--5-5--4--4-4--3--3-2--|
|----------------------------------|

Riff 4c (Guitar 1)
|----------------------------------|
|----------------------------------|
|-----9-11----7-9-----6-8-----5-7--| x1
|----------------------------------|
|--7-------5-------4-------3-------|
|----------------------------------|

Riff 4c (Guitar 2)
|----------------------------------|
|----------------------------------|
|--9-------7-------6-------5-------| x1
|--9-------7-------6-------5-------|
|--7--7-9--5--5-7--4--4-6--3--3-5--|
|----------------------------------|

Riff 4d (Guitar 1)
|----------------------------------|
|----------------------------------|
|--4--9-11----7-9-----6-8-----5-7--| x1
|----------------------------------|
|----------5-------4-------3-------|
|----------------------------------|

Riff 4d (Guitar 2)
|----------------------------------|
|----------------------------------|
|--9-------7-------6-------5-------| x1
|--9-------7-------6-------5-------|
|--7--7-9--5--5-7--4--4-6--3--3-5--|
|----------------------------------|

Riff 4 (Guitar 3/Optional)
|----------------------------------|
|----------------------------------|
|--9-------7-------6-------5-------| x4
|--9-------7-------6-------5-------|
|--7-------5-------4-------3-------|
|----------------------------------|


Riff 5
|-----|
|-----|
|-----| x1
|--2--|
|--2--|
|--0--|


Riff 6a
|---------------------------------------|
|-------------------3-------------------|
|--------2-------5----------2-----------| x1
|-----4-------3----------4-----------1--|
|--2------------------2-----------3-----|
|------------------------------1--------|

Riff 6b
|-------------------------------------------|
|-------------------3-----------------------|
|--------2-------5----------2---------------| x1
|-----4-------3----------4-----------1---1--|
|--2------------------2-----------3----3----|
|------------------------------1------------|


Riff 1 x 4

Riff 2 x 2

Riff 3a x 1

Riff 3b x 1

Riff 3a x 1

Riff 3b x 1

Riff 1 x 4


Riff 7a
|-------------------------------------|
|-------------------------------------|
|-------------------------------------| x1
|--3-2---3-2---3-2--------------------|
|--3-2---3-2---3-2---4h5-5p4-4h5-5p4--|
|--1-0---1-0---1-0--------------------|

Riff 7b
|-------------------|
|-------------------|
|-------------------| x1
|--3-2---3-2---3-2--|
|--3-2---3-2---3-2--|
|--1-0---1-0---1-0--|


Riff 8
|----------------------------------------------------|
|----------------------------------------------------| x As many times as
|----------------------------------------------------|   you want, or until
|--3-2--------3-2--------3-2-------------------------|   you get bored.
|--3-2--------3-2--------3-2--------4h5-5p4-4h5-5p4--|
|--1-0--0000--1-0--0000--1-0--0000-------------------|
        ....       ....       ....


************************************

| /   slide up
| \   slide down
| h   hammer-on
| p   pull-off
| v   vibrato
| .   Mute note
| *   harmonic
| b   Bend
| pb  Pre-bend
| br  Bend release
| pbr Pre-bend release
| brb Bend release bend

************************************
            
Submit corrections

comments powered by Disqus
↑ Back to top | Candlemass Tabs for Clearsight. Lyrics for acoustic guitar and electric guitar. 1 Tablatures and chords are parodies/interpretations of the original songs. You may use it for private study, scholarship, research or language learning purposes only