» » »

Black Stone Wielder Tabs (ver.1)

Artists:  A B C D E F G H I J K L M N O P Q R S T U V W X Y Z # 

Black Stone Wielder Tabs (ver.1)

Candlemass
Rating:
0/5 (0 votes)

Hard to play? Try these video lessons and learn fast.
                Go easy on me, this is my first tab and it's not the whole solo. Just before the fast 
bit. Key is D minor.

Peace out.

E-----------------------------------------------------------------------------|
B---13b(15)--13-11-10--------------------10h-11-------------------------------|
G---------------------12p-10h-12b(14)-----------12----10p-9-10----9h-10p-9----|
D-----------------------------------------------------------------------------|
A-----------------------------------------------------------------------------|
E-----------------------------------------------------------------------------|


E----------------------------------15b(17)-15-13-12-13-15-13b(15)-13-12-------|
B---------------------10-11---------------------------------------------15----|
G--9h10p9-----9-10-12-------12---------------- -------------------------------|
D---------12------------------------------------------------------------------|
A-----------------------------------------------------------------------------|
E-------------- --------------------------------------------------------------|

E-----------------------------------------------------------------------------|
B---15h-17p-15--15b(18)--13h-15------------10-11--10h11p10--------------------|
G-------------------------------12-10h-12--------------------12-10h12p10-9----|
D-----------------------------------------------------------------------------|
A-----------------------------------------------------------------------------|
E-----------------------------------------------------------------------------|

Thats as much as I know. If you want the very beginning intro riff, tune to drop D and 
here is the tab.

(6th string)
D--000000--333333--888888--765-321-------------------------------------------
Repeat as necessary.

Hope this helps, again forgive me as this is my first tab and I'm also a noob >.<
            
Hard to play? Try these video lessons and learn fast. | Correct




comments powered by Disqus
↑ Back to top | Tablatures and chords are parodies/interpretations of the original songs. You may use it for private study, scholarship, research or language learning purposes only