» » »

Candlemass, Black Candles Tabs (ver.1)

Artists:  A B C D E F G H I J K L M N O P Q R S T U V W X Y Z # 

Black Candles Tabs (ver.1)

Candlemass Tabs
 Rating:
4/5 (6 votes)
Black Candles lessons Tabs too difficult? Try these video lessons and learn fast
                -------------------------------------------------------------------------------
-------------------------------------------------------------------------------

i dont know the acoustic part..

rythem guitar (comes in at 0:17)
e|-----------------------------------------------------|
B|-----------------------------------------------------|
G|-----------------------------------------------------|
D|-----------------------------------------------------|
A|--8--8-8-8-8--9--9-9-9-9--8--8-8-8-8--7--7-7-7-7-----|
E|--6--6-6-6-6--7--7-7-7-7--6--6-6-6-6--5--5-5-5-5-----|
       . . . .     . . . .     . . . .     . . . .

e|---------------------------|
B|---------------------------|
G|---------------------------|
D|---------------------------|
A|--8--9--13--9--7----7------|
E|--6--7--11--7--5----5------|


lead guitar (repeat through whole song, comes in at 1:06)
e|---------------------------------------------------------------------------|
B|---------------------------------------------------------------------------|
G|----7-7---------7-7--------7-7-----7-7---------7-7-9-9-10-10-9-9-----------|
D|--------7-7-6-6----7-7-6-6-----7-7-----7-7-6-6-------------------6-6-------|
A|---------------------------------------------------------------------------|
E|---------------------------------------------------------------------------|


| /  slide up
| \  slide down
| h  hammer-on
| p  pull-off
| ~  vibrato
| +  harmonic
| x  Mute note
===============================================================================
            
Submit corrections

comments powered by Disqus
↑ Back to top | Candlemass Tabs for Black Candles. Lyrics for acoustic guitar and electric guitar. Tablatures and chords are parodies/interpretations of the original songs. You may use it for private study, scholarship, research or language learning purposes only