» » »

Candlemass, At The Gallows End Bass tabs (ver.1)

Artists:  A B C D E F G H I J K L M N O P Q R S T U V W X Y Z # 

At The Gallows End Bass tabs (ver.1)

Candlemass Tabs
Rating:
5/5 (2 votes)
At The Gallows End lessons Tabs too difficult? Try these video lessons and learn fast
                -------------------------------------------------------------------------------
-------------------------------------------------------------------------------


Tuning:Standard

Intro 0:00 - 1:06
G|------------------------------------|
D|------------------------------------|
A|------------------------------------| x 4
E|---5-------3--------1-------0-------|

bass Line A 1:07 - 1:20
G|---------------------------------------|
D|---------------------------------------|
A|---------------------------------------| x 4
E|--0-0--0-0--0-0--0-0--0-1-3-4-3-1-0-1--|

bass Line B 1:21 - 1:34
G|----------------------------------------------------|
D|----------------------------------------------------|
A|-------2----1-----------3---------2----1----3--3--2-| x 2
E|--0--------------2---3-------0----------------------|

bass Line A 1:21 - 2:06
G|---------------------------------------|
D|---------------------------------------|
A|---------------------------------------| x 10
E|--0-0--0-0--0-0--0-0--0-1-3-4-3-1-0-1--|

bass Line C (Main Riff) 2:07 - 2:23 
G|-------------------------------------------------------------------------|
D|-------------------------------------------------------------------------|
A|--2--4-5---1--2-4---2--4-5---1--2-4---7--9-10---6--9-7----------0-1-1----|
E|----------------------------------------------------------0-2-3-------0--|

Intro bass 2:24 - 2:54
G|----------------------------|--------|------------|
D|----------------------------|--------|------------|
A|----------------------------|--------|------------| x 2
E|--5--5-55--3--3-33--1--1-11-|-0--0-00|-0~let-ring-|
                              First time  Last time
bass Line A 2:55 - 3:07
G|---------------------------------------|
D|---------------------------------------|
A|---------------------------------------| x 4
E|--0-0--0-0--0-0--0-0--0-1-3-4-3-1-0-1--|

bass Line C 3:08 - 3:22
G|----------------------------------------------------|
D|----------------------------------------------------|
A|-------2----1-----------3---------2----1----3--3--2-| x 2
E|--0--------------2---3-------0----------------------|

bass Line A 3:23 - 3:53
G|---------------------------------------|
D|---------------------------------------|
A|---------------------------------------| x 10
E|--0-0--0-0--0-0--0-0--0-1-3-4-3-1-0-1--|

bass Line C (Main Riff) 3:53 - 4:07
G|-------------------------------------------------------------------------|
D|-------------------------------------------------------------------------|
A|--2--4-5---1--2-4---2--4-5---1--2-4---7--9-10---6--9-7----------0-1-1----|
E|----------------------------------------------------------0-2-3-------0--|

bass Line D (under solo) 4:07 - 4:35
G|------------------------------------------------------------|
D|------------------------------------------------------------|
A|------------------------------------------------------8-7---| x 4
E|--3---/5--5--5---3---/6--6--3---3---/5--5--5/6--5--3--------|

4:36 - 4:48
G|-------------------------------------------------|
D|-------------------------------------------------|
A|----------------------------------------------4--| x 2
E|--0--0--1--/4--3--1--0--1--0--0--1--/4--3--1-----|

4:49 - 4:53
G|----------------|
D|----------------|
A|-----------4-4--| x 2
E|--0-1-3-0-------|

Riff A 4:53 - 5:24
G|---------------------------------------|
D|---------------------------------------|
A|---------------------------------------| x 10
E|--0-0--0-0--0-0--0-0--0-1-3-4-3-1-0-1--|

bass Line C (Main Riff) 5:25 - 5:46
G|-------------------------------------------------------------------------|
D|-------------------------------------------------------------------------|
A|--2--4-5---1--2-4---2--4-5---1--2-4---7--9-10---6--9-7----------0-1-1----|
E|----------------------------------------------------------0-2-3-------0--|


| /  slide up
| \  slide down

===============================================================================
            

comments powered by Disqus
↑ Back to top | Candlemass Bass for At The Gallows End. Lyrics for acoustic guitar and electric guitar. Tablatures and chords are parodies/interpretations of the original songs. You may use it for private study, scholarship, research or language learning purposes only