» » »

Candlemass, Assassin Of The Light Tabs (ver.1)

Artists:  A B C D E F G H I J K L M N O P Q R S T U V W X Y Z # 

Assassin Of The Light Tabs (ver.1)

Candlemass Tabs
 Rating:
4.2/5 (5 votes)
Assassin Of The Light lessons Tabs too difficult? Try these video lessons and learn fast
1
                -------------------------------------------------------------------------------
-------------------------------------------------------------------------------

Duration of a note
e=Eighth                   * note *  
q=quarter              if you do not know 
h=half                 how notes work.. 
w=whole                ignore the letters



intro/main riff
    h    h    e e q  h        h    h     e e q  q  q
e|---------|--------------||---------|-----------------|
B|---------|--------------||---------|-----------------|
G|---------|--------------||---------|-----------------|
D|--7------|--7-9-7--3----||--7------|---7-9-7--3--3---|x 4
A|--5----6-|--5-7-5--1----||--5----6-|---5-7-5--1--1---|
E|-------4-|--------------||-------4-|-----------------|
 
verse
   q e e  q e e   q e e  q e e
e|---------------|------------------|
B|---------------|------------------|
G|---------------|------------------|
D|----4-5----7-6-|---4-5--4-4/5-----|x 4
A|--3------5-----|-3------2-2/3-----|
E|---------------|------------------|



| /  slide up
| \  slide down
| h  hammer-on
| p  pull-off
| ~  vibrato
| +  harmonic
| x  Mute note
===============================================================================
            
Submit corrections

comments powered by Disqus
↑ Back to top | Candlemass Tabs for Assassin Of The Light. Lyrics for acoustic guitar and electric guitar. 1 Tablatures and chords are parodies/interpretations of the original songs. You may use it for private study, scholarship, research or language learning purposes only