>
 >
A Cry From The Crypt

A Cry From The Crypt Guitar Tabs

Candlemass - A Cry From The Crypt chords, tabs, tablatures, lyrics

Guitar lessons | Add/correct | Request | Top 50 tabs Artists:  A B C D E F G H I J K L M N O P Q R S T U V W X Y Z 0-9

A Cry From The Crypt Guitar Tabs – Candlemass

CD, Sheet music, Poster

Do you like A Cry From The Crypt? Share with your friends now
Tabs
Candlemass - A Cry from the Crypt

Eb-|---------------------------|---------------------------|
Bb-|---------------------------|---------------------------|
Gb-|---------------------------|---------------------------|
Db-|---------------------------|---------------------------|
Ab-|----1-2-3-2-1-2-3-2-1-2----|---------------------------|
Eb-|-0----------------------2~-|-1-2-3-2-1-2-3-2-1-2-0~----|


Eb-|------------------------------------|
Bb-|------------------------------------|
Gb-|------------------------------------|
Db-|-2----------------------------------|
Ab-|-2----------------------------------|
Eb-|-0--0-0-0-0-0--0-0-0-0--0-1-3-4-3-1-|
     .  . . . . .  . . . .
 
Eb-|-------------------|------------------|
Bb-|-------------------|------------------|
Gb-|-9--9--------------|-10-10------------|
Db-|-9--9--------------|-10-10------------|
Ab-|-7--7----9/10-9----|-8--8-----3-2-3-2-|
Eb-|------0--7/8--7----|-------0--1-0-1-0-|
          .                   .
          
Eb-|---------------------------------------------------------------------------|
Bb-|---------------------------------------------------------------------------|
Gb-|-4-------4-----------------------------------------------------------------|
Db-|-4-------4---------------------------------------------------------8-5-4-5-|
Ab-|-2-2-2-2-2-2-2-2--2-2-2--------------------------------------------6-3-2-3-|
Eb-|------------------------3-3-3-2-2-2-3-3-3-0-0-0-3-3-3-2-2-2-0-0-0----------|
       . . .   . . .  . . . . . . . . . . . . . . . . . . . . . . . .
       
Eb-|------------------------------------|
Bb-|------------------------------------|
Gb-|------------------------------------|
Db-|------------------------------------|
Ab-|-------6--------5--------4/3-6-5-4--|
Eb-|-0-0-0-6--0-0-0-5--0-0-0-4/3-5-4-3--|
     . . .    . . .    . . .    
       

Eb-|-------------------------|---------------------------|
Bb-|-------------------------|---------------------------| (play soflty)
Gb-|-------------------------|---------------------------|
Db-|-------------------------|---------------------------| 2x (hold last note 2nd time)
Ab-|-7---7-8---8-7---7-6---6-|-7---7-8---8-10---10-9---9-| 
Eb-|---5-----6-----5-----4---|---5-----6------8------7---|


Eb-|----------------------------------------------|
Bb-|----------------------------------------------|
Gb-|----------------------------------------------|
Db-|-------------------------------------------3~-|
Ab-|-0-2-2-2-2-2-3-2-2-2-2-2-0-2-2-2-2-2-3-2-0----|
Eb-|----------------------------------------------|
     . . . . . . . . . . . . . . . . . . . . . 
     
Eb-|----------------------------------------------|
Bb-|----------------------------------------------|
Gb-|----------------------------------------------|
Db-|-------------------------2-----------3-2------|
Ab-|-0-2-2-2-2-2-3-2-2-2-2-2---3-3-3-3-3-----4-3~-|
Eb-|----------------------------------------------|
     . . . . . . . . . . . . . . . . . . . . .          
     
     
                \/ Same as above, but on the E string \/
Eb-|----------------------------------------------|
Bb-|----------------------------------------------|
Gb-|----------------------------------------------|
Db-|----------------------------------------------|
Ab-|-------------------------------------------3~-|
Eb-|-0-2-2-2-2-2-3-2-2-2-2-2-0-2-2-2-2-2-3-2-0----|     
     . . . . . . . . . . . . . . . . . . . . . 
     
Eb-|----------------------------------------------|
Bb-|----------------------------------------------|
Gb-|----------------------------------------------|
Db-|----------------------------------------------|
Ab-|-------------------------2-----------3-2------|
Eb-|-0-2-2-2-2-2-3-2-2-2-2-2---3-3-3-3-3-----4-3~-|
     . . . . . . . . . . . . . . . . . . . . . 
     
     
Eb-|----------------------------|
Bb-|----------------------------|
Gb-|----------------------------|
Db-|-------0-------0-------0--3-|
Ab-|-2---2---3---3---2---2----1-|
Eb-|---0-------1-------0--------|        
     
Eb-|----------------------------|
Bb-|----------------------------|
Gb-|----------------------------|
Db-|-------0------0----------6--|
Ab-|-2---2---3---3--5---5-7--4--|
Eb-|---0-------1------3---------|


Eb-|------------------|
Bb-|------------------|
Gb-|------------------|
Db-|-------2-1-2------|
Ab-|-3-2-3------------|
Eb-|------------3-2~--| 

Eb-|-------------------------------|
Bb-|-------------------------------|
Gb-|-------------------------------|
Db-|----5--4-5-4--2-4-5------------| repeat
Ab-|-2--3--2-3-2--0-2-3--5--4-5-4--|
Eb-|-0-------------------3--2-3-2--|   





Comments


Popular Candlemass tabs & chords
Ancient Dreams Tabs
Bewitched Tabs
Crystal Ball Intro 1 Tabs
Cyclo-f Tabs
Dark Are The Veils Of Death Tabs
Edge Of Heaven Tabs
House Of 1000 Voices Tabs
Into The Unfathomed Tower Tabs
Mirror Mirror 1 Tabs
Witches Tabs


Song lyrics



↑ Back to top | Tablatures and chords are parodies/interpretations of the original songs. You may use it for private study, scholarship, research or language learning purposes only
© 2014 AZChords.com Contact us | Privacy policy | DMCA | Add/correct tabs | Request tabs | Top 50 tabs