» » »

Candlebox, Simple Lessons Tabs (ver.1)

Artists:  A B C D E F G H I J K L M N O P Q R S T U V W X Y Z # 

Simple Lessons Tabs (ver.1)

Candlebox Tabs
 Rating:
4/5 (5 votes)
Simple Lessons lessons Tabs too difficult? Try these video lessons and learn fast
                #------------------------------------------------------------------------------##
Simple lessons! from the album LUCY by CANDLEBOX
~~~~~~~~~~~~~~~~~~~~~~~~~~~~~~~~~~~~~~~~~~~~~~~~
What a great song!!


intro:
e|---0-----0---0x---0-----0---0x--|
B|-----0-----0-0x-----0-----0-0x--|
G|-------3~----3x-------3~----3x--|
D|-4--------------4---------------|
A|-4--------------4---------------|
E|-2--------------2---------------|

              
The main riff:
e|-------------------------------------------------|
B|-------------------------9--9-9-9-9--------------| repeat
G|-3--3-3-3-3--6--6-6-6-6--9--9-9-9-9--8--8-8-8-8--|
D|-4--4-4-4-4--7--7-7-7-7--9--9-9-9-9--9--9-9-9-9--|
A|-4--4-4-4-4--7--7-7-7-7--7--7-7-7-7--9--9-9-9-9--|
E|-2--2-2-2-2--5--5-5-5-5--------------7--7-7-7-7--|


I believe he uses a wah-wah in the next part:
e|-------|-------|-------|-------|
B|-------|-------|-------|-------| it sounds best if you
G|---3---|---4---|---9---|---8---| slide between the chords!
D|-----4-|-----7-|-----9-|-----9-|
A|-4-----|-7-----|-7-----|-9-----|
E|-------|-------|-------|-------|

I don't know how to call the next part but it's cool!!
e|--------------------------------------------|
B|--------------------------------------------|
G|-3--3-3-3-3--3\1--1-1-/6--6-6-6-6--6/8--8-8-|
D|-4--4-4-4-4--4\2--2-2-/7--7-7-7-7--7/9--9-9-|
A|-4--4-4-4-4--4\2--2-2-/7--7-7-7-7--7/9--9-9-|
E|-2--2-2-2-2--2\0--0-0-/5--5-5-5-5--5/7--7-7-|

that are all the parts he plays figure out in what order for yah self

lyrics:
Sounds to be where, you want to scream
Always left withouth,saying hello
I've seen chains that bear less, snap and fall long before you let go
Times run over your sink onto my floor,
It's okay we've cleaned them many times before
simple lessons are, simple lessons are, simple lessons are
simple lessons are, simple lessons are
Sounds might be where, yeah i want to cry
Always left before , i said hello
He's had days where shades of brilliance,never granted him space
Green shades of painfull rains,it's okay,they'll wash away now
simple lessons are, simple lessons are, simple lessons are
simple lessons are, simple lessons are
Always, taught you how, drain yourself empty
Always, taught you how, drain yourself empty
We've all scared up from ages of childish games
Yet i've never seen your head up higher
It feels real this time, i seen your happy again
Reel in it for awhile,oh enough to take my place
Sounds to be where,you want to scream
Always left without saying hello
I've seen chains that bear less, snap and fall long before you let go
You before you let go!






=-=-=-=-=-=-=-=-=-=-=-=-=-=-=-=-=-=-=-=-=-=-=-=-=-=-=-=-=-=-=-=-=-=-=-=-=-=-=
This is the main riff of Understanding i thought i might as well include it
maybe i'll tab out the whole song if anybondy wants me to! (mail me)

e|------------------|r|-------|
B|--------------0---|e|-----0-| i'm not shure 'bout that last
G|-----5------5---5-|p|-----2-| part but i'll give you something
D|---0---0--0-------|e|-0-0---| to work on  :)
A|-5------5---------|a|-2-----|
E|------------------|t|-------|
=-=-=-=-=-=-=-=-=-=-=-=-=-=-=-=-=-=-=-=-=-=-=-=-=-=-=-=-=-=-=-=-=-=-=-=-=-=-=
Also working on the become to tell  here's what i got so far:

Intro
~~~~~~
e|---------0---------------0---------------0-----------------------------------
B|-----------0---------------0---------------0---------------------------------
G|-------------2---------------2---------------6-------------------------------
D|-----3---------3-----3---------3-----7---------------------------------------
A|---3---3-----------3---3-----------7---7-------------------------------------
E|-1---------------1---------------5-------------------------------------------

The next part is played over the intro and is continued throughout the song
(not the exact strumming! (listen to the CD))
e|---------------|
B|---u-----------|
G|-6-6\--2---2/6-| repeat
D|-7-7\--3---3/7-|
A|-7-7\--3---3/7-|
E|-5-5\--1---1/5-|
    (slide back and
     then strum fast)

e|------------------------------------------|
B|------------------------------------------|
G|-9--9--9--9--9--9--9--9--9--9--9--9--9--6-| slide back to 8 and repeat
D|-10-10-10-10-10-10-10-10-10-10-10-10-10-7-| then do the upper part again
A|-10-10-10-10-10-10-10-10-10-10-10-10-10-7-|
E|-8--8--8--8--8--8--8--8--8--8--8--8--8--5-|
   !!Strum till it feels right!!
=-=-=-=-=-=-=-=-=-=-=-=-=-=-=-=-=-=-=-=-=-=-=-=-=-=-=-=-=-=-=-=-=-=-=-=-=-=-=



This song Rules
                                                                       As
played at their concert in N.Y. City at Roseland on December 4 and 5  
Any comments or corrections 

\=slide into
()= not herd 
X =pick scr*pe

you need to use timing, and listen to the CD in order to get it right

INTRO
-------0-------------------0-------------
----------0--------------------0---------
- (3)----------3-------------------3------
--4---------------4------------------4---
--4-------------------2------------------
--2-------------------2------------------
 the second time you play the intro end it         ----
 chord to the right                                             ----
                          
                                                                         ----
                                                                         -4--
 
                                                                         -4--
                                                                         -2--

Main two riffs 

riff A    the 3rd and 4th chords of this riff are iffy  so if they 
              don't sound right make somthing up.
-2--2-2-2-\-5-5-5----------------------
-2--2-2-2-\-5-5-5--x--x-x--x-x-x------
-3--3-3-3-\-6-6-6--9--9-9--4-4-4-----
-4--4-4-4-\-7-7-7--9--9-9--4-4-4-----
-4--4-4-4-\-7-7-7--7--7-7--2-2-2-----
-2--2-2-2-\-5-5-5--9--9-9--4-4-4-----

riff B
-2--2-2-2--0-0-0----------------------
-2--2-2-2--0-0-0--2--2-2-2--4-4-4----
-3--3-3-3--1-1-1--2--2-2-2--4-4-4----
-4--4-4-4--2-2-2--2--2-2-2--4-4-4----
-4--4-4-4--2-2-2--0--0-0-0--2-2-2----
-2--2-2-2--0-0-0----------------------

O.K. this is how it goes together

1)play intro 

2)                                              simple          
-2--2-2-2-\-5-5-5----------------------
-2--2-2-2-\-5-5-5--x--x-x--x-x-x------
-3--3-3-3-\-6-6-6--9--9-9--4-4-4-----
-4--4-4-4-\-7-7-7--9--9-9--4-4-4-----
-4--4-4-4-\-7-7-7--7--7-7--2-2-2-----
-2--2-2-2-\-5-5-5--9--9-9--4-4-4-----
                                                   simple lessons
-2--2-2-2-\-5-5-5----------------------
-2--2-2-2-\-5-5-5--x--x-x--x-x-x------
-3--3-3-3-\-6-6-6--9--9-9--4-4-4-----
-4--4-4-4-\-7-7-7--9--9-9--4-4-4-----
-4--4-4-4-\-7-7-7--7--7-7--2-2-2-----
-2--2-2-2-\-5-5-5--9--9-9--4-4-4-----


riff B                                         simple
-2--2-2-2--0-0-0----------------------
-2--2-2-2--0-0-0--2--2-2-2--4-4-4----
-3--3-3-3--1-1-1--2--2-2-2--4-4-4----
-4--4-4-4--2-2-2--2--2-2-2--4-4-4----
-4--4-4-4--2-2-2--0--0-0-0--2-2-2----
-2--2-2-2--0-0-0----------------------

riff B                                                   simple
-2--2-2-2--0-0-0----------------------
-2--2-2-2--0-0-0--2--2-2-2--4-4-4----
-3--3-3-3--1-1-1--2--2-2-2--4-4-4----
-4--4-4-4--2-2-2--2--2-2-2--4-4-4----
-4--4-4-4--2-2-2--0--0-0-0--2-2-2----
-2--2-2-2--0-0-0----------------------

3) Verse
You have to slide from chord to chord i n this part
sounds to be where        you want to scream    always left without
     saying hellow
F#    \       A   \     E  \       B \          F#  \     A  \     E \
         B
-------------------0--------------------------0---------
---------------------0---4----------------------0---4--
---3--------6---------------4----3------6------------4-
------4-------7---------------------4-----7------------
------------------------2-------------------------------
-2--------5-----0--------------2------5-----0----7-----
play verse a whole bunch of times listen to CD to get the # of times

after the verse play riff A twice then play riff B 4 times
then play riff c

riff c
-----------------------------------------------
-6--6-6--6-6--6-6--6--6-6--6--6-6--6-6--6-6--
-6--6-6--6-6--6-6--6--6-6--6--6-6--6-6--6-6--
-6--6-6--6-6--6-6--6--6-6--6--6-6--6-6--6-6--
-4--4-4--4-4--4-4--4--4-4--4--4-4--4-4--4-4--
----------------------------------------------- 

next play riff D three times
riff D
-------------0-------------------0--------------
----------------0--------------------0----------
-(3)--(3)-(3)---------3---------------------3------
--4---4--4-------------4----------------------4---
--4---4--4-----------------2----------------------
--2---2--2-----------------2----------------------
then play riff A four times and end with chord below
                                                                         ----
                                                                         ----
                          
                                                                         ----
                                                                         -4--
 
                                                                         -4--
                                                                         -2--
Well thats about it have fun
I'm not typing the words if you need them or have any coments, or requests
for any candlebox songs (especially their first record I know most of the
            
Submit corrections

comments powered by Disqus
↑ Back to top | Candlebox Tabs for Simple Lessons. Lyrics for acoustic guitar and electric guitar. Tablatures and chords are parodies/interpretations of the original songs. You may use it for private study, scholarship, research or language learning purposes only