» » »

Candlebox, No Sense Tabs (ver.3)

Artists:  A B C D E F G H I J K L M N O P Q R S T U V W X Y Z # 

No Sense Tabs (ver.3)

Candlebox Tabs
Rating:
5/5 (3 votes)
No Sense lessons Tabs too difficult? Try these video lessons and learn fast
                INTRO - CLEAN Standard tuning 478 hz
e---------------------6---|---------------------6-7-------------|
b---------5------------7--|----------5-------------7------------|
g----------6------------6-|-----------6-------------------------|
d------6----6-------------|------6-----6------------------------|
a---4---------------9-----|----4--------------------------------|
e-----------------7-------|-------------------7-----------------|
PLAY THIS 3 TIMES ......... THEN PLAY THIS RIGHT BEFORE THE VOCALS START

or if its easier do --------6----------| or whatever you catch my drift
                    ----------7--------|
                    ------------6------|
                    ----4--------------|
                    --2----------------|
                    -------------------|
VERSES
e--4--4-----6--6---|
b--5--5-----7--7---|
g--6--6-----6--6---|
d--6--6------------|
a--4--4------------|
            
Submit corrections

comments powered by Disqus
↑ Back to top | Candlebox Tabs for No Sense. Lyrics for acoustic guitar and electric guitar. Tablatures and chords are parodies/interpretations of the original songs. You may use it for private study, scholarship, research or language learning purposes only