>
 >
Mother's Dream

Mother's Dream Guitar Tabs

Candlebox - Mother's Dream chords, tabs, tablatures, lyrics

Guitar lessons | Add/correct | Request | Top 50 tabs Artists:  A B C D E F G H I J K L M N O P Q R S T U V W X Y Z 0-9

Mother's Dream Guitar Tabs – Candlebox

CD, Sheet music, Poster

Do you like Mother's Dream? Share with your friends now
Tabs
Artist Name : Candlebox
Song Name   : Mother's Dream
Added By Mikhailo
 

------------------------------------------------------
-17------16------------16------17-----16-----------16-
----14-----14--------14---14------14----14-------14---
-------------14----14----------------------14---14----
-------14-------14------------14-----14------14-------
------------------------------------------------------

--------------------
------17----16------
-14-----14----14----
-----------------14-
---14-----14--------
--------------------

       PLAY 4 TIMES
--------------------------------------------------
-16----16---16----16---16----16---16--17-17-17-17-
-14----14---14----14---14----14---14--14-14-14-14-
-14-14-14---14-14-14---14-14-14---14--14-14-14-14-
-14-14-14---14-14-14---14-14-14---14--14-14-14-14-
------------0-----------0----------0--------------
       
------------------------------------------
-16----(16)----(16)----(16)---17---14-----
-14----(14)----(14)----(14)------------14-
-14----(14)----(14)----(14)---------------
-14----(14)----(14)----(14)---------------
--0----(0) ----(0) ----(0) ---------------


------------------------------------------
-14-----(14)-----16h17-----16------(16)---
---------------14-------14-------------14-
------------------------------------------
------------------------------------------
------------------------------------------
                
         
-------14-----------------------------------
-17b1-----17b1------------------------------
----------------16b1---16--14------(14)\\\2-
--------------------------------------------
--------------------------------------------
--------------------------------------------

--------------------------------------------------
-17b1-hold---(17)-17------16--(16)-------14--(14)-
---------------------14------14------14---(14)-14-
--------------------------------------------------
--------------------------------------------------

-----------------------------------------------------
-17----16----14----17---16----14--------17--14-------
-----14---14----14----14---14----14-14---------------
-----------------------------------------------------
-----------------------------------------------------
---------------------------------------------------0-

--------------------------------------------------
-16----16---16----16---16----16---16--17-17-17-17-
-14----14---14----14---14----14---14--14-14-14-14-
-14-14-14---14-14-14---14-14-14---14--14-14-14-14-
-14-14-14---14-14-14---14-14-14---14--14-14-14-14-
---------0---------0----------0-------------------

--------------------------------------------------------
-19b1 1/2 hold---(19)--release-(19)------------17----16-
------------------------------18\-----------14----------
--------------------------------------------------------
--------------------------------------------------------
--------------------------------------------------------
          
     
----------------------------------------------------
-16-----14--14-----17-----16~~~~~~~~~~~~~~(16)---14-
----------------14------14-----------------------14-
----------------------------------------------------
----------------------------------------------------
----------------------------------------------------

-----------------------------------------------
-17----16---17---16----------------------------
----14----14---14---14---14--------13----------
------------------------16----16\14----14/16~~~
-----------------------------------------------
-----------------------------------------------
       
-------------------------------------------------
-----------------------17------------------------
-----------------------17b1 1/2hold--release(17)-
~~~~~(16)\\\\\\4---------------------------------
-------------------------------------------------
-------------------------------------------------

--------------------------------------
--------------------------------------
-16b1/2hold--(16)---14----(14)~~~~(14)
--------------------------------------
--------------------------------------
--------------------------------------
       
--------------------------------------
----------14~~~~(14)~~~~--------------
~~~~~-----------(14)------------------
--------------------------------------
--------------------------------------
-----------------0-----0-----0----11\-

-------------------------------------------
-X/----X\-----2b1/4------------------------
-X/----X\-----2b1/4------------------------
-X/----X\--0--2b1/4----4----2---4~~~~(4)~~~
-----------0-------------------------------
-----------0-------------------------------
               
                  
-------------------------------------------------
-------2b1/4--4--2b1/4-------------------------2-
-------2b1/4--4--2b1/4-------------------------2-
-2-h-4------4----2b1/4----4--2--4~~~~~~~(4)~~----
-----------------0-------------------------------
-------------------------------------------------
  
------------------
-4---4b1/4-4~~~~4-
-4---4b1/4-4~~~~4-
------------------
------------------
------------------

    
---------------------------------
----2b1/4------------------------
----2b1/4------------------------
-0--2b1/4----4----2---4~~~~(4)~~~
-0-------------------------------
-0-------------------------------
              
-------------------------------------------------
-------2b1/4--4--2b1/4-------------------------2-
-------2b1/4--4--2b1/4-------------------------2-
-2-h-4------4----2b1/4----4--2--4~~~~~~~(4)~~----
-----------------0-------------------------------
-------------------------------------------------
  
-----------------      
-4--4b1/4-4~~~~4-
-4--4b1/4-4~~~~4-
-----------------
-----------------
-----------------
                      
--------------------------------
----2b1/4-----------------------
----2b1/4-----------------------
-0--2b1/4---4----2---4~~~~(4)~~~
-0------------------------------
-0------------------------------
                   
                    
----------------------------------------------
-------2b1/4--4--2b1/4----------------------2-
-------2b1/4--4--2b1/4----------------------2-
-2-h-4------4--- 2b1/4----4--2--4~~~~(4)~~----
-----------------0----------------------------
----------------------------------------------

------------------
-4---4b1/4-4~~~~4-
-4---4b1/4-4~~~~4-
------------------
------------------
------------------
               
----------------------------
-2b1/4--------------------2-
-2b1/4--------------------2-
-2b1/4---4--2--4~~~(4)~~----
----------------------------
----------------------------

------------------
-4---4b1/4-4~~~~4-
-4---4b1/4-4~~~~4-
------------------
------------------
------------------
           
-----------------------------------------------------
-----------------------------------------------------
-2-----------------2--4--4--4--4---4b1--4--4--4--4-4-
-2---4--2--4---(4)~~~~~~~~~~~~~~~~-------------------
-0---------------------------------------------------
-----------------------------------------------------

-----------------------------
-----------------------------
-4-4-4-4-4-4-4-4-4-4-4-4-4-4-
-----------------------------
-----------------------------
-----------------------------

------------------------------------------------------
-4p2---2b1/4----2-2-4b1/2-4--(4)~~~4p2--2-4b1/2-4~4~4~
-------2b1/4----2-2-4b1---4--(4)~~~4p2--2-4b1---4~4~4~
-----4--------4------------------------4--------------
------------------------------------------------------
------------------------------------------------------

-------------------------------------------------
---5b1---2--5--2--------------------2--5-2-4b1/2-
-x----------------4b1--(4)-p-2---2-4-------------
-x-----------------------------4-----------------
-------------------------------------------------
-------------------------------------------------

-------------------------------------------------------
-4-p-2--4p2--2-----------------------------------------
-------4----4--4--2--4p2-------------------------------
-----------------0--4----4p2---------------------------
------------------------------4--2-4-2-----------------
----------------------------------------4p2---4b1 1/2~~

----------------------9--------9---------11----------
------------------------10--(10)--10/12-----12\10/12-
------9h11---11~~~~~~--------------------------------
-----------------------------------------------------
-----------------------------------------------------
~0~~~------------------------------------------------

-11----------12---------14--------16--------17--19b1/2
----12-/-14-----14-/-17---16-/-17---17-/19---17-------
------------------------------------------------------
------------------------------------------------------
------------------------------------------------------
------------------------------------------------------

-19b1--(19)~~~\----------------------------------------
-----------------0--x----------------------------------
---------------------16b1-----16b1-(16)p14---16-14-----
-------------------------------------------16------16\-
-------------------------------------------------------
-------------------------------------------------------





Comments


Popular Candlebox tabs & chords
Change Chords
10,000 Horses Tabs
Belmore Place Tabs
Best Friend Tabs
Don't You Tabs
Drowned Tabs
He Calls Home Tabs
Vulgair Before Me Tabs
Far Behind Ukulele
Miss You Ukulele


Song lyrics



↑ Back to top | Tablatures and chords are parodies/interpretations of the original songs. You may use it for private study, scholarship, research or language learning purposes only
© 2014 AZChords.com Contact us | Privacy policy | DMCA | Add/correct tabs | Request tabs | Top 50 tabs