>
 >
It's Amazing

It's Amazing Guitar Tabs

Candlebox - It's Amazing chords, tabs, tablatures, lyrics

Guitar lessons | Add/correct | Request | Top 50 tabs Artists:  A B C D E F G H I J K L M N O P Q R S T U V W X Y Z 0-9

It's Amazing Guitar Tabs – Candlebox

CD, Sheet music, Poster

Do you like It's Amazing? Share with your friends now
Tabs
Band- Candlebox
Song- It's Amazing

Intro: I don't even know if it's guitar or not. Just play something random.

Verse: Guitar 1: Riff 1 (w/distortion)
											(2x)
e|-----------------------------------------------------------------------------------------------------------|
B|-----------------------------------------------------------------------------------------------------------|
G|-----------------------------------------------------------------------------------------------------------|
D|---0--0-0--0-0--0--0-0--0-0--0--0-0--0-0--0--0-0--0-0--3--3-3--3-3--3--3-3--3-3--3--3-3--3-3--3--3-3--3-3--|
A|---0--0-0--0-0--0--0-0--0-0--0--0-0--0-0--0--0-0--0-0--3--3-3--3-3--3--3-3--3-3--3--3-3--3-3--3--3-3--3-3--|
D|---0--0-0--0-0--0--0-0--0-0--0--0-0--0-0--0--0-0--0-0--3--3-3--3-3--3--3-3--3-3--3--3-3--3-3--3--3-3--3-3--|
          "At  a   standstill                              somebody      somebody put me here..."

Guitar 2: (w/Riff 1) 
e|---------------------------------------------------------------|
B|-------3*------------------------------------------------6*----|
G|---2*------------------------------------------------5*--------|
D|---------------------------------------------------------------|
A|---------------------------------------------------------------|
D|---------------------------------------------------------------|
               "Can't you all...          see what it says?"

Riff 2:

e|---------------------------------------------------------------|
B|-------3*------------------------------------------------6*----|
G|---2*------------------------------------------------5*--------|
D|---------------------------------------------------------------|
A|---------------------------------------------------------------|
D|---------------------------------------------------------------|
             "And I think I...               I'll make it"

e|-----------------------------------------------------------------|
B|--------------5*-------------------------------------------------|
G|------------------5*--------------------------------------0--2*--|
D|-----------------------------------------------------------------|
A|-----------------------------------------------------------------|
D|-----------------------------------------------------------------|
    "Because I love you		I love you     yes you know"

Chorus: Guitar 2 
e|-------------------------------------|
B|-------------------------------------|
G|----2*---(and just hold this note)---|
D|-------------------------------------|
A|-------------------------------------|
D|-------------------------------------|
  -Guitar 1 is silent during the chorus.

Verse 2: Guitar 1 plays Riff 1, Guitar 2 plays Riff 2, as in the 1st verse.

Chorus 2: 
e|-----------------------------------------------------------------------------------------------------------|
B|-----------------------------------------------------------------------------------------------------------|
G|----2*--------------------------------------------------0*-------------------------------------------0--2*-|
D|-----------------------------------------------------------------------------------------------------------|
A|-----------------------------------------------------------------------------------------------------------|
D|-----------------------------------------------------------------------------------------------------------|
       "It's amazing we're still here...    It's amazing, how		Oh, amazing we're still here"          

Solo:

e|-----------------------|--------------------------------------------------------|
B|----------13b(15)*-----|--------------------------------------------------------|
G|------10---------------|------12b(14)r12p10-12p10-----------10-9v*--------------|
D|---12------------------|--------------------------12v---------------------------|
A|-----------------------|--------------------------------------------------------|
D|-----------------------|--------------------------------------------------------|

e|-----------10-----10-12---12b(13)--|------13b(15)---------10h12p10-----10--10v--|
B|---10--13--------------------------|-------------------------------13-----------|
G|-----------------------------------|--------------------------------------------|
D|-----------------------------------|--------------------------------------------|
A|-----------------------------------|--------------------------------------------|
D|-----------------------------------|--------------------------------------------|

e|-10-------------------------------------------------------------------|
B|----13------10--10v---------------------------------------------------|
G|-------12------------12b(14)r12--10-12-10b(12)---------10-12-10b(12)--|
D|----------------------------------------------------12----------------|
A|----------------------------------------------------------------------|
D|----------------------------------------------------------------------|

e|-------------10-----------13---13p10-----13/15v------13-15-15b(17)-------13----13----------|
B|--13b(15)-------13----10-------------13-------------------------------------15----15b(17)--|
G|-------------------12----------------------------------------------------------------------|
D|-------------------------------------------------------------------------------------------|
A|-------------------------------------------------------------------------------------------|
D|-------------------------------------------------------------------------------------------|

e|---------------------------------------------------------------------------------|
B|--15b(17)r15-13----15-15v----13----15-15v----13----15-15v----13----15-15b(17)----|
G|----------------14--------------14--------------14--------------14---------------|
D|---------------------------------------------------------------------------------|
A|---------------------------------------------------------------------------------|
D|---------------------------------------------------------------------------------|

e|---------------------------------------------------------10---------------------------------|
B|--15b(17)---15b(17)---15b(17)r15--13b(15)-------------------13----10------------------------|
G|-------------------------------------------------12b(14)-------12----12b(14)r12p10----10*---|
D|-----------------------------------------------------------------------------------12-------|
A|--------------------------------------------------------------------------------------------|
D|--------------------------------------------------------------------------------------------|





Comments


Popular Candlebox tabs & chords
Breathe Me In Chords
Cover Me Chords
Sometimes Chords
Belmore Place Tabs
Blinders Tabs
Don't You 1 Tabs
Drowned Tabs
Simple Lessons Tabs
Vulgar Before Me Tabs
Cover Me Ukulele


Song lyrics



↑ Back to top | Tablatures and chords are parodies/interpretations of the original songs. You may use it for private study, scholarship, research or language learning purposes only
© 2014 AZChords.com Contact us | Privacy policy | DMCA | Add/correct tabs | Request tabs | Top 50 tabs