» » »

Candlebox, Into The Sun Tabs (ver.1)

Artists:  A B C D E F G H I J K L M N O P Q R S T U V W X Y Z # 

Into The Sun Tabs (ver.1)

Candlebox Tabs
Rating:
5/5 (2 votes)
Into The Sun lessons Tabs too difficult? Try these video lessons and learn fast
                ---------------------------------------------------------------------------

Tuning:Standard


Intro:

e|------------------------------2------------------------------------------|
B|---2--2---3---3---2----2--3------------2---2---3---3---2----2--0---------|
G|----4---4---4---4---0--------------------4---4---4---4---0---------------|
D|-------------------------------------------------------------------------|
A|-------------------------------------------------------------------------|
E|-------------------------------------------------------------------------|


Verse:

    Bm                        Bb                   
e|--------2----------2-----------0-------0---------------|
B|-----3-----3----3----3--------3---3---3--3-------------|
G|--4----------4---------4----3-------3------3-----------|
D|-------------------------------------------------------|
A|-------------------------------------------------------|
E|-------------------------------------------------------|

     G                         A
e|--------2-------2---------------------------5----------|
B|------3---3---3----3--------------2---0--2-------------|
G|------------0--------0----------2---2------------------|
D|---5---------------------------------------------------|
A|-----------------------------0-------------------------|
E|-------------------------------------------------------|


Pre Chorus:
   
    D                C             D
e|--------0-2-------------0---------------0------------------------------|
B|------3-----3--------------1----------3---3----------------------------|
G|----2---------2-------0-------------2-------2--------------------------|
D|--0------------------------------0-------------------------------------|
A|-------------------3-----------------------------3--2--0---------------|
E|-----------------------------------------------------------3--2--0-----|


Chorus:

    D        A         G                      D 
e|-------------------------------------------------------------------|
B|-------------------------------------------------------------------|
G|--7-7-7--7----------------------------------7----------------------|
D|--7-7-7--7-7-7-7---7-5-5-5---5-4---4-5-7----7----------------------|
A|--5-5-5--5-7-7-7---7-5-5-5---5-4---4-5-7----5----------------------|
E|-----------5-5-5---5-3-3-3---3-2---2-3-5---------------------------|


Much like it...




| /  slide up
| \  slide down
| h  hammer-on
| p  pull-off
| ~  vibrato
| +  harmonic
| x  Mute note
============================================================================
            

comments powered by Disqus
↑ Back to top | Candlebox Tabs for Into The Sun. Lyrics for acoustic guitar and electric guitar. Tablatures and chords are parodies/interpretations of the original songs. You may use it for private study, scholarship, research or language learning purposes only