>
 >
Blossom 1

Blossom 1 Guitar Tabs

Candlebox - Blossom 1 chords, tabs, tablatures, lyrics

Guitar lessons | Add/correct | Request | Top 50 tabs Artists:  A B C D E F G H I J K L M N O P Q R S T U V W X Y Z 0-9

Blossom 1 Guitar Tabs – Candlebox

CD, Sheet music, Poster

Do you like Blossom 1? Share with your friends now
TabsTabs v2
#

BLOSSOM BY CANDLE BOX OFF OF THEIR DEBUT ALBUM AND IT KICKS *** FROM    OJ IN
LAPD
YOU SHOULD USE A REVERB PEDAL THROUGHOUT THE WHOLE SONG AND YOUR GONNA HAVE
TO BE PRETTY GOOD WITH THE WAH WAH PEDAL FOR THE SOLO BUT OTHERWISE IS JUST
ANOTHER ONE OF PETER KLET'S AWSOME GUITAR CHORDS PUT TO GETHER. THIS IS A
STRAIT THREW TAB MEANING NO CHORDS ALL TAB STRAIGHT THREW JUST FOLLOW WHAT I
SAY
TECHNICAL STUFF
/=SLIDE IN
\=SLIDE OUT
p=PULL OFF
h=HAMMER ON
~=VIBRATE
b1=BEND UP ONE STEP
X=PICK SCRAPE
( )=BARELY HERD NOT PICKED

(INTRO)
PLAY THIS ONCE
--------------0-------------|
-------------3--3-----------|
------0-----0---------------|
--4----4---4----------------|
----5---5-------------------|
-0-------0------------------|
THEN PLAY THIS 5 TIMES
--------------0-------------|
-------------3--3-----------|
------0-----0---------------|
--4----4---4----------------|
----5---5-------------------|
-0-------5------------------|
RYTHM
LIGHTS, THEY WASHFACE PALE ON MISTY WHITE       COLOR FLOWERS YOUR EYES SEEM
EVER
-----------------0--------------------------------0------|
-3-------------3---3-------------3--------------3---3----|
-------------0---------------------------------0---------|
-----------4---------------------4-----------4-----------|
-5---------------------------------5---------------------|
---------------------------------------------------------|
CHANGING                             IN       MY       MIND
                   OH
---------------------------------------------0----|
--------------------------------------------3--3--|
------0--------0-----0-----------0--------0-------|
----0--0-----------2---2----4-----4-----4---------|
---------5---8----3-------5---5-----5-------------|
-5---------8--------------------------0-----------|

COLORS BLEED TO RED AS I KISS YOUR FACE                WANT TO TELL YOU I
LOVE YOU EVERY
-----------------0--------------------------------0------|
-3-------------3---3-------------3--------------3---3----|
-------------0---------------------------------0---------|
-----------4---------------------4-----------4-----------|
-5---------------------------------5---------------------|
---------------------------------------------------------|
DAY           YEAH                   AS WE GROW
                                        SEE I
---------------------------------------------0----|
--------------------------------------------3--3--|
------0--------0-----0-----------0--------0-------|
----0--0-----------2---2----4-----4-----4---------|
---------5---8----3-------5---5-----5-------------|
-5---------8--------------------------0-----------|
KNOW NOW   YES I KNOW NOW ITS ALL ON MY OWN
----------------------------|
----------------------------|
----0---------0--------0----|
---0--0--------------2------|
--5-----5-/-8---8--3--------|
-5--------8-----------------|
       HEY     AND     I
--------------0-------------|
-------------3--3-----------|
------0-----0---------------|
--4----4---4----------------|
----5---5-------------------|
-0-------0------------------|
KNOW NOW
--------------0-------------|
-------------3--3-----------|
------0-----0---------------|
--4----4---4----------------|
----5---5-------------------|
-0-------0------------------|

CAN YOU FEEL MY PAIN AS YOU WALK ON BY        WILL YOU TELL ME YOU NEED ME
EVRY TIME
-----------------0--------------------------------0------|
-3-------------3---3-------------3--------------3---3----|
-------------0---------------------------------0---------|
-----------4---------------------4-----------4-----------|
-5---------------------------------5---------------------|
---------------------------------------------------------|
YEAH                                          ALL     A----
----------------------------|
----------------------------|
----0---------0--------0----|
---4--0--------------2---2--|
--5-----5---8---8--3--------|
-5--------8-----------------|
LONE                           OH
--------------0-------------|
-------------3--3-----------|
------0-----0---------------|
--4----4---4----------------|
----5---5-------------------|
-0-------0------------------|
SEE I'LL SHOW YOU THINGS NEVER SEEN BEFORE   FOR YOUR MIND TO UNTANGLE  ON
YOUR
-----------------0--------------------------------0------|
-3-------------3---3-------------3--------------3---3----|
-------------0---------------------------------0---------|
-----------4---------------------4-----------4-----------|
-5---------------------------------5---------------------|
---------------------------------------------------------|
OWN   NOW                  ALL  A   LONE
                                              YES I
---------------------------------------------0----|
--------------------------------------------3--3--|
------0--------0-----0-----------0--------0-------|
----0--0-----------2---2----4-----4-----4---------|
---------5---8----3-------5---5-----5-------------|
-5---------8--------------------------0-----------|
KNOW NOW   YES I KNOW NOW ITS ALL ON MY OWN
----------------------------|
----------------------------|
----0---------0--------0----|
---0--0--------------2---2--|
--5-----5---8---8--3--------|
-5--------8-----------------|
  YES I KNOW NOW I'LL WATCH AS YOU GO
----------------------------|
----------------------------|
----0---------0--------0----|
---0--0--------------2---2--|
--------5---8---8--3--------|
-5--------8-----------------|
   YES I KNOW NOW                      IT'S ALL
----------------------------|
----------------------------|
----0---------0--------0----|
---0--0--------------2---2--|
--------5---8---8--3--------|
-5--------8-----------------|
RIGHT                                                                  AND I
--------------------------------------|
-3-3-3-3-3---3-3-3-3-3-3-3-3---3------|
-2-2-2-2-2---2-2-2-2-2-2-2-2-2-2-2----|
-0-0-0-0-0---0-0-0-0-0-0-0-0-0-0-0----|
-0-0-0---0---0--- 0---0---0---0---0---|
-0-0-0---0---0--- 0---0---0---0---0---|
KNOW NOW YES I  KNOW     NOW     IT'S      ALL    ON      MY OWN     WHOA
          AS  YOU
---------------------------------------------------------|
----------------------------------------3--3-3-3---------|
-0--0--0-----------------------------2- 2 -2-2-2--- 0-0--|
-5--5--5--8-8-8-8-8-10-10-10-10-10-4- 4- 4-4-4-4-0-0-----|
-5--5--5--8-8-8-8-8-10-10-10-10-10-0- 0--------0-0-0-----|
-5--5--5--8-8-8-8-8-10-10-10-10-10-0- 0--------0---------|
LOSSOM            AS YOU BLOSSOM             EVERY DAY
                           AND    I
---------------------------------------------------------|
----------------------------------------3--3-3-3---------|
-0--0--0-----------------------------2- 2 -2-2-2--- 0-0--|
-5--5--5--8-8-8-8-8-10-10-10-10-10-4- 4- 4-4-4-4-0-0-----|
-5--5--5--8-8-8-8-8-10-10-10-10-10-0- 0--------0-0-0-----|
-5--5--5--8-8-8-8-8-10-10-10-10-10-0- 0--------0---------|
KNOW NOW YES I  KNOW     NOW     IT'S      ALL    ON      MY OWN
               AS  YOU
---------------------------------------------------------|
----------------------------------------3--3-3-3---------|
-0--0--0-----------------------------2- 2 -2-2-2--- 0-0--|
-5--5--5--8-8-8-8-8-10-10-10-10-10-4- 4- 4-4-4-4-0-0-----|
-5--5--5--8-8-8-8-8-10-10-10-10-10-0- 0--------0-0-0-----|
-5--5--5--8-8-8-8-8-10-10-10-10-10-0- 0--------0---------|
LOSSOM            AS YOU BLOSSOM             EVERY DAY
                           EVERY DAY
---------------------------------------------------------|
-------------------------------3-----(3)-----(3)---------|
-0--0--0---------------------- 2-----(2)-----(2)---------|
-5--5--5--5-5-5-5-8-10-10-10-0-----(0)-----(0)-----------|
-5--5--5--5-5-5-5-8-10-10-10-0-----(0)-----(0)-----------|
-5--5--5--5-5-5-5-8-10-10-10-0-----(0)-----(0)-----------|
NOW PLAY THIS LIGHTLY WITH A FLANGER OR WAH WAH 5-6 TIMES
                                     AND THEN PICK SCRAPES
--------------0-------------       -X-----------|
-------------3--3-----------       --X----------|
------0-----0---------------       ---X---------|
--4----4---4----------------       ----X--------|
----5---5-------------------        -----X------|
-0-------0------------------        ------X-----|
I DONT     FEEL     MY     ARMS ARE    BREAKING   UP               I    DONT
------------------------------------------------|
------------------------------------------------|
-5/7-7-7-7------------------ 7-7-7--5/7-7-7-7---|
-5/7-7-7-7- 5-5-5-5-2-2-2-0-7-5-5--5/7-7-7-7----|
-3/5-5-5-5- 5-5-5-5-2-2-2-0-5-5-5--3/5-5-5-5----|
------------ 5-5-5-5-2-2-2-0--------------------|
FEEL MY   ARMS  THEY ARE  TURN  IN   RED            I   DONT
---------------------------------------|
--------------------------------3-3----|
--------------------------------2-2-2--|
-5--5-5-5-2--2-2-2--3-3-3-3--- 0-0-0---|
-5--5-5-5-2--2-2-2--3-3-3-3--------0---|
-5--5-5-5-2--2-2-2--3-3-3-3-0----------|
    FEEL     MY     ARMS ARE    BREAKING   UP               I    DONT
---------------------------------------|
---------------------------------------|
------------------- 7-7-7--5/7-7-7-7---|
-- 5-5-5-5-2-2-2-0-7-5-5--5/7-7-7-7----|
-- 5-5-5-5-2-2-2-0-5-5-5--3/5-5-5-5----|
-- 5-5-5-5-2-2-2-0---------------------|
I DONT FEEL YOU SLIPPING FROM MY HANDS________________
---------------------------------------|
--------------------------------3-3----|
--------------------------------2-2-2--|
-5--5-5-5-2--2-2-2--3-3-3-3--- 0-0-0---|
-5--5-5-5-2--2-2-2--3-3-3-3--------0---|
-5--5-5-5-2--2-2-2--3-3-3-3-0----------|
NOW TIME FOR THE SOLO YOU NEED A REVERB  PEDAL AND A WAH WAH PEDAL FOR TONE
LISTEN TO THE CD TO KNOW WHEN TO USE THE WAH WAH   THE SOLOS RIGHT BUT YOU
NEED RYTHM AND TIMING         ITS GONA TAKE FOR EVER TO TYPE THIS CRAP OUT
----------------------------------------10-------------|
-10~~~~(10)----------------12-(12)-------12--12--------|
-10~~~~(10)-10~~~~-(10)/12----12~~~~~~~~12~~~12\10-----|
-------------------------------------------------------|
-------------------------------------------------------|
-------------------------------------------------------|

--------------------------------------------------------|
-10------12------10--------12---------------------------|
---10/12---12-10----10/12----12p10-10b1-(12)p10-12-10---|
--------------------------------------------------------|
--------------------------------------------------------|
--------------------------------------------------------|

--------------------------------------------10-13p10-----|
-10-----------------13--13b1~~~~~~~~~~~~~--13---------13-|
---------------------------------------------------------|
----12~~~~~~~12-12---------------------------------------|
---------------------------------------------------------|
---------------------------------------------------------|

-10h13p10--10h13p10---10--10----------------------------|
----------13---------13--13---13p10-10-13p10-10---------|
--------------------------------------------------12b1--|
--------------------------------------------------------|
--------------------------------------------------------|
--------------------------------------------------------|

--------------------------------------------------------|
----------------------10h13---10------------------------|
-(12)p10---10-12~~~~~------12--12b1-(12)p10--10---------|
--------12-----------------------------------12-12~~~~--|
--------------------------------------------------------|
--------------------------------------------------------|

---------------------------------------------------------|
---------------------------------------------------------|
------12b1~~~~~(12)p10---10~~~------12b1--(12)p10--10----|
-x--x-------------------12------12-10-------------12-----|
---------------------------------------------------------|
---------------------------------------------------------|

---------------------------------------------------------|
---------------------------------------------------------|
-12b1-(12)p10-----10-12b1---12b1--(12)p10-------10-12b1--|
---------------12-------------------------12-(12)--------|
---------------------------------------------------------|
---------------------------------------------------------|

---10-------10-------13p10---10h13p10--10h13p10--10------|
-10--13b1~~~---13p10-------13---------13--------13-------|
---------------------------------------------------------|
---------------------------------------------------------|
---------------------------------------------------------|
---------------------------------------------------------|

---------------------------------------------------------|
-13p10-13p10-10-13p10h13---------------------------------|
--------------------------12-12--12b1-(12)p10-10---------|
-------------------------------------------------12~~~~--|
---------------------------------------------------------|
---------------------------------------------------------|
                    YES   AND    I
--------------------|
------10----(10)\---|
----10------(10)\---|
~~~-----------------|
--------------------|
--------------------|
KNOW NOW YES I  KNOW     NOW     IT'S      ALL    ON      MY OWN
               AS  YOU
----------------------------------------------------|
-----------------------------------3--3-3-3---------|
-0---0---0-----------------------2- 2 -2-2-2--- 0-0-|
-5---5---5--5-5-5-5-8/10-10-10-4- 4- 4-4-4-4-0-0----|
-5---5---5--5-5-5-5-8/10-10-10-0- 0--------0-0-0----|
-5---5---5--5-5-5-5-8/10-10-10-0- 0--------0--------|
BLOSSOM       EVERY
                                                         DAY
---------------------------------------------------------|
------------------------------------------------- 3------|
-0--0--0-----------------------------2- - ------- 2-- ---|
-5--5--5--8-8-8-8-8-10-10-10-10-10-4- 4- ------4---------|
-5--5--5--8-8-8-8-8-10-10-10-10-10-0- 0--------0---------|
-5--5--5--8-8-8-8-8-10-10-10-10-10-0- 0--0--0- 0---------|
YEAH                                          YES   I
-----------------------------------------|   <-THIS PART LOOKS
-7/10-10-10-10-10-10\5-5-5-5-------------|      WRONG BUT PEOPLE
-------------------------------0---------|      THAT HAVE BEEN
-4/7---7--7--7--7--7-\2-2-2-2 0----------|      PLAYING FOR A WHILE
-----------------------------------------|       KNOW WHAT I MEAN
-----------------------------------------|
KNOW NOW      YES   I   KNOW    NOW  IT'S ALL   ON   MY
                 OWN-------------------------------------|
---------------------------------------------------------|
------------------------------------------------- 3------|
-0--0--0-----------------------------2- - ------- 2-- ---|
-5--5--5--5-5-5-5-8-10-10-10-10-10-4- 4- ------4---------|
-5--5--5--5-5-5-5-8-10-10-10-10-10-0- 0--------0---------|
-5--5--5--5-5-5-5-8-10-10-10-10-10-0- 0--0--0- 0---------|
                                         AS YOU BLOSSOM
----------------------------------|
-7/10-10-10-10-10-10\5-5-5-5------|
-------------------------------0--|
-4/7---7--7--7--7--7-\2-2-2-2 0---|
----------------------------------|
----------------------------------|
EVERY                DAY
                                                  YEAH   YEAH             NOW
 I
---------------------------------------------------------|
----------------------------------------3--3-3-3---------|
-0--0--0-----------------------------2- 2 -2-2-2--- 0-0--|
-5--5--5--8-8-8-8-8-10-10-10-10-10-4- 4- 4-4-4-4-0-0-----|
-5--5--5--8-8-8-8-8-10-10-10-10-10-0- 0--------0-0-0-----|
-5--5--5--8-8-8-8-8-10-10-10-10-10-0- 0--------0---------|
KNOW NOW YES I  KNOW     NOW     IT'S      ALL    ON      MY OWN
               AS  YOU
----------------------------------------------------|
-----------------------------------3--3-3-3---------|
-0---0---0-----------------------2- 2 -2-2-2--- 0-0-|
-5---5---5--5-5-5-5-8/10-10-10-4- 4- 4-4-4-4-0-0----|
-5---5---5--5-5-5-5-8/10-10-10-0- 0--------0-0-0----|
-5---5---5--5-5-5-5-8/10-10-10-0- 0--------0--------|
BLOSSOM       EVERY
                                                         DAY
---------------------------------------------|   FADE OUT
--------------------------------------3------|  WITH THAT
-0--0--0----------------------------- 2-- ---|   LAST CHORD
-5--5--5--5-5-5-8-8-10-10-10-10-10-4---------|
-5--5--5--5-5-5-8-8-10-10-10-10-10-0---------|
-5--5--5--5-5-5-8-8-10-10-10-10-10-0---------|

--------------0-------------|   CONTINUE WITH THIS LIGHTLY
-------------3--3-----------|   AND FADE OUT
------0-----0---------------|
--4----4---4----------------|
----5---5-------------------|
-0-------0------------------|

OK HOPE I MADE SOME PEOPLE HAPPY       IF YOU HAVE ANY QUESTIONS COMMENTS OR
REQUESTS JUST E-MAIL ME AT
And yeah greenday sucks  people keep asking me for their tabs so here you go
  just make a whole bunch of nosie no one will know the difference   oh yeah
don't forget to screem like an idiot.





Comments


Popular Candlebox tabs & chords
Far Behind 3 Chords
Miss You Chords
Breathe Into Me Intro Tabs
Cover Me 2 Tabs
Don't You 1 Tabs
Vulgar Before Me Tabs
Consider Us Ukulele
Rain Ukulele
Sometimes Ukulele
Turn Your Heart Around Ukulele


Song lyrics



↑ Back to top | Tablatures and chords are parodies/interpretations of the original songs. You may use it for private study, scholarship, research or language learning purposes only
© 2014 AZChords.com Contact us | Privacy policy | DMCA | Add/correct tabs | Request tabs | Top 50 tabs