» » »

Venus Im Sorry Tabs (ver.1)

Artists:  A B C D E F G H I J K L M N O P Q R S T U V W X Y Z # 

Venus Im Sorry Tabs (ver.1)

Candid Daydream
Rating:
0/5 (0 votes)

Tabs too difficult? Try these video lessons and learn fast.
                Tuning: Down 1/2 Step

Intro
         
eb--------0-0---------3-1-----|-----------------------------------------------------------|
Bb------1-----1-----1-----1---|-----------------------------------------------------------|
Gb----0---------0-1---------1-|-------5-5555-555---2-2222-222-----------------------------|
Db----------------------------|-X2----5-5555-555---3-3333-333-----------------------------|
Ab----------------------------|-------3-3333-333---3-3333-333-----------------------------|
Eb----------------------------|-------3-3333-333---1-1111-111-----------------------------|


Verse ("Venus I'm sorry...")
    
eb---0-000---0-000---0-000-|-------0-000---3-333---2-222----------------------------------|
Bb---1-111---0-000---1-111-|-------1-111---1-111---1-111----------------------------------|
Gb---2-222---1-111---2-222-|-------2-222---2-222---2-222----------------------------------|
Db---2-222---2-222---3-333-|-X2----2-222---2-222---0-000----------------------------------|
Ab---0-000---2-222---------|--------------------------------------------------------------|
Eb-----------0-000---------|--------------------------------------------------------------|


Pre Chorus ("Well I left you right where you told me to leave you...")

eb-----------------|----------------------------------------------------------------------|
Bb-----------------|----------------------------------------------------------------------|
Gb---2-222---0-000-|----------------------------------------------------------------------|
Db---3-333---3-333-|-X8-------------------------------------------------------------------|
Ab---3-333---2-222-|----------------------------------------------------------------------|
Eb---1-111---3-333-|----------------------------------------------------------------------|


Chorus ("Venus where's your head gone now...")

eb-----------------------|-------0-0000-000---0-0000-000---0-0000-000---0-000-------------|
Bb-----------------------|-------1-1111-111---1-1111-111---1-1111-111---1-111-------------|
Gb---5-5555-555---2-2222-|-------2-2222-222---2-2222-222---2-2222-222---2-222-0-000-------|
Db---5-5555-555---3-3333-|-X2----2-2222-222---0-0000-000---2-2222-222---0-000-3-333-------|
Ab---3-3333-333---3-3333-|-------0-0000-000---0-0000-000---0-0000-000---0-000-2-222-------|
Eb---3-3333-333---1-1111-|----------------------------------------------------3-333-------|
            
Tabs too difficult? Try these video lessons and learn fast.


comments powered by Disqus
↑ Back to top | Tablatures and chords are parodies/interpretations of the original songs. You may use it for private study, scholarship, research or language learning purposes only