>
 >
Rosa

Rosa Guitar Tabs

Candid Daydream - Rosa chords, tabs, tablatures, lyrics

Guitar lessons | Add/correct | Request | Top 50 tabs Artists:  A B C D E F G H I J K L M N O P Q R S T U V W X Y Z 0-9

Rosa Guitar Tabs – Candid Daydream

CD, Sheet music, Poster

Do you like Rosa? Share with your friends now
Tabs
Tuning: Down 1/2 Step


Intro/Verse
eb-------------------------------------------------------------------------------------------|
Bb--------------------9--10--9--10-----------------------------------------------------------|
Gb-----9-9-9--9-9-9-7--7---7--7---7----------------------------------------------------------|
Db----7---7--7---7-0-0--0---0--0-------------------------------------------------------------|
Ab---0---------------------------------------------------------------------------------------|
Eb----------9--------------------------------------------------------------------------------|

Pre-Chorus ("With X-ray vision...")
eb---------------------------1-3-------------------------------------------------------------|
Bb-----0-----0-----0-----0---1-3-------------------------------------------------------------|
Gb----2-2---2-2---2-2---2-2--2-4-------------------------------------------------------------|
Db---4---4-3---3-2---2-1---1-3-5-------------------------------------------------------------|
Ab---------------------------3-5-------------------------------------------------------------|
Eb---------------------------1-3-------------------------------------------------------------|

Chorus ("Hey Rosa...")
eb-------2-1-|-------------------------------------------------------------------------------|
Bb-------2-1-|-------------------------------------------------------------------------------|
Gb---2-6-2-2-|-----2-6-7-8-9-----------------------------------------------------------------|
Db---2-6-4-3-|x2---2-6-7-8-9-----------------------------------------------------------------|
Ab---0-4-4-3-|-----0-4-5-6-7-----------------------------------------------------------------|
Eb-------2-1-|-------------------------------------------------------------------------------|

Bridge 1 ("And I'm sure that you thought it through...")
eb-----2---2---2-----------------------------------------------------------------------------|
Bb-----2---2---2-------0-----0-----0-----0---------------------------------------------------|
Gb---4-2-6-2-4-2-7-9--2-2---2-2---2-2---2-2--7-9---------------------------------------------|
Db---4-4-6-4-4-4-7-9-4---4-3---3-2---2-1---1-7-9---------------------------------------------|
Ab---2-4-4-4-2-4-5-7-------------------------5-7---------------------------------------------|
Eb-----2---2---2-----------------------------------------------------------------------------|

Bridge 2 ("Hey you upstairs I know you're there...")
eb--------------------------------|----------------------------------------------------------|
Bb--------------------------7-7---|----------------------------------------------------------|
Gb-----9-9-9--9-9-9--9-9-9--9-9-9-|----------------------------------------------------------|
Db----7---7--7---7--7---7--7---7--|x2--Verse X1----------------------------------------------|
Ab---0----------------------------|----------------------------------------------------------|
Eb----------9------8------7-------|----------------------------------------------------------|

Bridge 3 ("From a past life that you never got right...")
eb-------------------------------------------------------------------------------------------|
Bb-------------------------------------------------------------------------------------------|
Gb---2-6-7-9---------------------------------------------------------------------------------|
Db---2-6-7-9---------------------------------------------------------------------------------|
Ab---0-4-5-7---------------------------------------------------------------------------------|
Eb-------------------------------------------------------------------------------------------|

Solo
eb-------------------------------------------------------------------------------------------|
Bb---------------10---------10---12p10-10-12-10----------------------------------------------|
Gb---------9-11-9--9-9h11-11--11---------------11-9s11-9-------------------------------------|
Db---7-9s11---------------------------------------------9-9-11-11-12p11p9--------------------|
Ab-----------------------------------------------------------------------12p9s7-7s12---------|
Eb-------------------------------------------------------------------------------------------|

eb-------------------------------------------------------------------------------------------|
Bb-----------------------10----10-------10-----10-----12-----14--10~-------------------------|
Gb----------------------9--9h11--11-9-11-----------------------------------------------------|
Db------------9-11-12-13------------------10s11--11s12--12s14--------------------------------|
Ab---9-12-9-12-------------------------------------------------------------------------------|
Eb-------------------------------------------------------------------------------------------|

eb---------12--------------------------------------------------------------------------------|
Bb---9s10-9--9s10-9h10p9--9h10--------------------9-9h10-9h10p9------------------------------|
Gb----------------------11----9-11-9---------x9x11-------------11-9--------------------------|
Db-----------------------------------x9x11x12----------------------12p11-9-------------------|
Ab------------------------------------------------------------------------12-----------------|
Eb-------------------------------------------------------------------------------------------|

eb-------------------9-----------------------------------------------------------------------|
Bb-------------10--10-10--------10-----------------------------------------------------------|
Gb------------9--11-----11-9h11---11-9-11----------------------------------------------------|
Db---9-11-9-11---------------------------9-11-7~---------------------------------------------|
Ab-------------------------------------------------------------------------------------------|
Eb-------------------------------------------------------------------------------------------|





Comments


Popular Candid Daydream tabs & chords
Adam Grays Last Words Chords
Adam Grays Last Words Tabs
Best Damn Undertow Jocke Tabs
Everything I Know Tabs
Hours To Go Tabs
Iceberg Tabs
Next Year Tabs
Next Year 2 Tabs
Recent Studies Tabs
Venus Im Sorry Tabs


Song lyrics



↑ Back to top | Tablatures and chords are parodies/interpretations of the original songs. You may use it for private study, scholarship, research or language learning purposes only
© 2014 AZChords.com Contact us | Privacy policy | DMCA | Add/correct tabs | Request tabs | Top 50 tabs