» » »

Candid Daydream, Recent Studies Tabs (ver.1)

Artists:  A B C D E F G H I J K L M N O P Q R S T U V W X Y Z # 

Recent Studies Tabs (ver.1)

Candid Daydream Tabs
 Rating:
4/5 (4 votes)
Recent Studies lessons Tabs too difficult? Try these video lessons and learn fast
                Tuning: Standard


Verse ("I almost didn't write this down...")
    
e-----------------------|-----------------------|--------------------------------------|
B---44444444---22222222-|-----------------------|--------------------------------------|
G---44444444---00000000-|-------444-666-777-666-|--------------------------------------|
D---44444444---xxxxxxxx-|-X2----555-xxx-xxx-xxx-|-X2-----------------------------------|
A---22222222---22222222-|-------555-555-555-555-|--------------------------------------|
E-----------------------|-------333-333-333-333-|--------------------------------------|

Note: Instead of playing 35x7 in the verse you can also play 35x63

Pre Chorus ("So tell me all about")

e--------------------------------------------------------------------------------------|
B--------------------------------------------------------------------------------------|
G---666--------------------------------------------------------------------------------|
D---777--------------------------------------------------------------------------------|
A---777--------------------------------------------------------------------------------|
E---555--------------------------------------------------------------------------------|

Chorus ("Scientific achievements I don't care...")

e--------------------|-----------------------------------------------------------------|
B---44444444-----555-|-------44444444-----------------44444444-------------------------|
G---44444444-666-666-|-------44444444-777-666-777-666-44444444-------------------------|
D---44444444-777-666-|-X2----44444444-777-777-777-777-44444444-------------------------|
A---22222222-777-444-|-------22222222-777-777-777-777-22222222-------------------------|
E------------555-----|----------------555-555-555-555----------------------------------|

Bridge ("Recent studies suggest...")

e---------------------|----------------------------------------------------------------|
B---------------------|-----------------------------------------4----------------------|
G------------99999999-|-----------888-111111-999-888-111111-6---4----------------------|
D---66666666-99999999-|-X2----666-888-111111-999-888-111111-6---4----------------------|
A---66666666-77777777-|-------666-666-9-9-9--777-666-9-9-9--4---2----------------------|
E---44444444----------|-------444------------------------------------------------------|

Outro

e--------------------------------------------------------------------------------------|
B---44444444-----555-------------------------------------------------------------------|
G---44444444-666-666-------------------------------------------------------------------|
D---44444444-777-666-------------------------------------------------------------------|
A---22222222-777-444-------------------------------------------------------------------|
E------------555-----------------------------------------------------------------------|
            
Submit corrections

comments powered by Disqus
↑ Back to top | Candid Daydream Tabs for Recent Studies. Lyrics for acoustic guitar and electric guitar. Tablatures and chords are parodies/interpretations of the original songs. You may use it for private study, scholarship, research or language learning purposes only