>
 >
Philadelphia Song

Philadelphia Song Guitar Tabs

Candid Daydream - Philadelphia Song chords, tabs, tablatures, lyrics

Guitar lessons | Add/correct | Request | Top 50 tabs Artists:  A B C D E F G H I J K L M N O P Q R S T U V W X Y Z 0-9

Philadelphia Song Guitar Tabs – Candid Daydream

CD, Sheet music, Poster

Do you like Philadelphia Song? Share with your friends now
Tabs

Tuned 1 half step down

Get the feel of the rhythm

Part 1

--3--X--0--X----3--2--0--X-|
--3--3--1--3----3--0--1--3-|
--0--2--0--0----0--2--0--0-|
--0--0--2--2----0--0--2--2-|
--2--2--3--3----2--2--3--3-|
--3--X--X--X----3--X--X--X-|
She asked me a sad, simple question...

0--3-                -0--0-|
1--3-                -1--3-|
0--0-                -0--0-|
2--0-                -2--4-|
3--2-                -3--5-|
X--3-                -X--X-|
she gets to me...     ...better...

3--X-X--0--0       -0--3-|
3--3-2--1--1       -0--3-|
0--2-1--0--2 (3X)  -4--0-|
0--0-0--2--0       -X--1-|
2--2-1--3--3       -2--X-|
3--X-X--X--X       -X--X-|
Philadelphia...    Show me what to do...

X--X-X--0--0                 -3---0-0-0-0--0-|
3--3-2--1--1                 -3---1-3-2-1--1-|
2--2-1--0--2                 -0---0-0-0-0--2-|
0--0-0--2--0                 -0---2-4-3-2--0-|
2--2-1--3--3                 -2---3-5-4-3--3-|
X--X-X--X--X                 -3---X-X-X-X--X-|
See I got these plans...     Fallin' Through...


Part 1


little bridge sort of thing

--2---3----3-----3---0-     -/0-|
--3---5----3-----3---1-     -/3-|
--4---4----0-----0---0- (2X)-/0-|
--4---5----0-----0---2-     -/4-|
--2---3----2-----2-3-3-     -/5-|
--2---3--3-3-3-0-0---X-     -/X-|


Part 1


Ending

X--X-X--0--     0                 -3--0--3--2--1--3-|
3--3-2--1--     1                 -3--0--3--3--2--3-|
2--2-1--0-- (3X)2                 -0--0--0--4--3--0-|
0--0-0--2--     0                 -0--2--1--4--3--0-|
2--2-1--3--     3                 -2--2--X--2--1--2-|
X--X-X--X--     X                 -3--0--X--2--1--3-|

See I've got these plans...      ...Through...

The End





Comments


Popular Candid Daydream tabs & chords
Adam Grays Last Words Chords
Adam Grays Last Words Tabs
Best Damn Undertow Jocke Tabs
Everything I Know Tabs
Gaslight Tabs
Hours To Go Tabs
Next Year Tabs
Recent Studies Tabs
Rosa Tabs
Trapeze Tabs


Song lyrics



↑ Back to top | Tablatures and chords are parodies/interpretations of the original songs. You may use it for private study, scholarship, research or language learning purposes only
© 2014 AZChords.com Contact us | Privacy policy | DMCA | Add/correct tabs | Request tabs | Top 50 tabs