>
 >
Iceberg

Iceberg Guitar Tabs

Candid Daydream - Iceberg chords, tabs, tablatures, lyrics

Guitar lessons | Add/correct | Request | Top 50 tabs Artists:  A B C D E F G H I J K L M N O P Q R S T U V W X Y Z 0-9

Iceberg Guitar Tabs – Candid Daydream

CD, Sheet music, Poster

Do you like Iceberg? Share with your friends now
Tabs
Tuning: Down 1/2 Step

Intro

eb---------0-2----------0-2---------0-------------------------------------------------------|
Bb-----3-------3---3--------3---3-----3-----2---3-2-----------------------------------------|
Gb-------2-----------0------------0-----0-----2-----2---------------------------------------|
Db---0--------------------------------------------------------------------------------------|
Ab----------------------------2-----------0-------------------------------------------------|
Eb---------------3--------------------------------------------------------------------------|

eb---------0-2---------0-2---------0--------------------------------------------------------|
Bb-----3-------3---3-------3---3-----3---2--------------------------------------------------|
Gb-------2-----------0-----------0-----0-2--------------------------------------------------|
Db---0-----------------------------------2--------------------------------------------------|
Ab---------------------------2-----------0--------------------------------------------------|
Eb---------------3--------------------------------------------------------------------------|


Verse ("How 'bout this...")

eb------------------------------------------------------------------------------------------|
Bb-------3------------3----------3------------3---------------------------------------------|
Gb-----2---2---2----0---0---0---0---0---0--------0------------------------------------------|
Db---0-------0------------0----------2------0------0----------------------------------------|
Ab----------------------------3-------------------------------------------------------------|
Eb----------------3-----------------------3-------------------------------------------------|

eb------------------------------------------------------------------------------------------|
Bb-------3-----------3-----------3----------------------------------------------------------|
Gb-----2---2---2---2---2---2---2---2---2----------------------------------------------------|
Db------------------------------------------------------------------------------------------|
Ab---2-------2---2-------2---0-------0---0--------------------------------------------------|
Eb------------------------------------------------------------------------------------------|


Chorus ("Cause it feels like I was born asleep...")

eb-------0------------0------------0--------------------------------------------------------|
Bb-----3---3---3----3---3---3----3---3---3------3-----3-------------------------------------|
Gb-----------2------------0------------0------2---2-----------------------------------------|
Db---0----------------------------------------------2---------------------------------------|
Ab-----------------------------2------------0-----------------------------------------------|
Eb----------------3-------------------------------------------------------------------------|


Bridge

eb-------0------------0------------0--------------------------------------------------------|
Bb-----3---3---3----3---3---3----3---3---3------3-----3-------------------------------------|
Gb-----------2------------0------------0------2---2-----------------------------------------|
Db---0----------------------------------------------2---------------------------------------|
Ab-----------------------------2------------0-----------------------------------------------|
Eb----------------3-------------------------------------------------------------------------|

eb-------0------------0------------0--------------------------------------------------------|
Bb-----3---3---3----3---3---3----3---3---3------3-----3-------------------------------------|
Gb-----------2------------0------------0------2---2-----------------------------------------|
Db---0----------------------------------------------2---------------------------------------|
Ab------------------------------------------0-----------------------------------------------|
Eb----------------3------------0------------------------------------------------------------|


Bridge 2 ("Cause my pain is an iceberg...")

eb------------------------------------------------------------------------------------------|
Bb-------3-----------3-----------3----------------------------------------------------------|
Gb-----2---2---2---2---2---2---2---2---2----------------------------------------------------|
Db------------------------------------------------------------------------------------------|
Ab---2-------2---2-------2---0-------0---0--------------------------------------------------|
Eb------------------------------------------------------------------------------------------|





Comments


Popular Candid Daydream tabs & chords
Adam Grays Last Words Chords
Adam Grays Last Words Tabs
Best Damn Undertow Jocke Tabs
Everything I Know Tabs
Gaslight Tabs
Hours To Go Tabs
Next Year 2 Tabs
Rosa Tabs
Trapeze Tabs
Venus Im Sorry Tabs


Song lyrics



↑ Back to top | Tablatures and chords are parodies/interpretations of the original songs. You may use it for private study, scholarship, research or language learning purposes only
© 2014 AZChords.com Contact us | Privacy policy | DMCA | Add/correct tabs | Request tabs | Top 50 tabs