» » »

Candid Daydream, Hours To Go Tabs (ver.1)

Artists:  A B C D E F G H I J K L M N O P Q R S T U V W X Y Z # 

Hours To Go Tabs (ver.1)

Candid Daydream Tabs
Rating:
0/5 (0 votes)
Hours To Go lessons Tabs too difficult? Try these video lessons and learn fast
                Tuning: Standard


Verse("Apparently there's nothing in my way...")

eb--------------------------------------------------------------------------------------|
Bb---------------5----------------------------------------------------------------------|
Gb-----5-----4---5-----2-----4---9------------------------------------------------------|
Db-----7-----5---5-----3-----5---10-----------------------------------------------------|
Ab-----7-----5---3-----3-----5---10-----------------------------------------------------|
Eb---5-5---3-3---0---1-1---3-3---8------------------------------------------------------|

Chorus ("Maybe I'm just missin' something...")

eb--------------------------------------------------------------------------------------|
Bb--------------------------------------------------------------------------------------|
Gb---9----10---9------5-----9------4-----2----------------------------------------------|
Db---10---10---10-----7-----10-----5-----3----------------------------------------------|
Ab---10---10---10-----7-----10-----5-----3----------------------------------------------|
Eb---8----8----8----5-5---8-8----3-3---1-1----------------------------------------------|

Bridge

eb--------------------------------------------------------------------------------------|
Bb--------------------------------------------------------------------------------------|
Gb-----5-----2---4----------------------------------------------------------------------|
Db-----7-----3---5----------------------------------------------------------------------|
Ab-----7-----3---5----------------------------------------------------------------------|
Eb---5-5---1-1---3----------------------------------------------------------------------|
            

comments powered by Disqus
↑ Back to top | Candid Daydream Tabs for Hours To Go. Lyrics for acoustic guitar and electric guitar. Tablatures and chords are parodies/interpretations of the original songs. You may use it for private study, scholarship, research or language learning purposes only