» » »

Gaslight Tabs (ver.1)

Artists:  A B C D E F G H I J K L M N O P Q R S T U V W X Y Z # 

Gaslight Tabs (ver.1)

Candid Daydream
Rating:
5/5 (1 vote)

Hard to play? Try these video lessons and learn fast.
                Tuning: Down 1/2 Step

Intro
         
eb----------------------0-0-------------------------------------------------------------|
Bb---------5x5---2222---0-0-------------------------------------------------------------|
Gb---6-6---4x4---2222---1-1-------------------------------------------------------------|
Db---7-7---xxx---2222---2-2-------------------------------------------------------------|
Ab---7-7---4x4---xxxx---2-2-------------------------------------------------------------|
Eb---5-5---------2222---0-0-------------------------------------------------------------|

Verse("They can bark all they want...")
    
eb-------5-------4-------2---1-0-|-----------5-------4----------------------------------|
Bb-------5-------5-------3---1-0-|-----------5-------5-------7777-----------------------|
Gb-------6-------6-------4---2-1-|-----------6-------6-------7777-----------------------|
Db-------7-----6-6-----4-4---3-2-|-X 3-------7-----6-6-----7-7777-----------------------|
Ab-----7-7---4---4---2---2---3-2-|---------7-7---4---4---5---5555-----------------------|
Eb---5---5-------x-------x---1-0-|-------5---5-------x----------------------------------|

Chorus ("So for now sleep I'll stay awake for you...")

eb----------------------0-0-------------------------------------------------------------|
Bb---------5x5---2222---0-0-------------------------------------------------------------|
Gb---6-6---4x4---2222---1-1-------------------------------------------------------------|
Db---7-7---xxx---2222---2-2-------------------------------------------------------------|
Ab---7-7---4x4---xxxx---2-2-------------------------------------------------------------|
Eb---5-5---------2222---0-0-------------------------------------------------------------|

Bridge("My back hurts like hell...")
eb-------2-------4-----------0----------------------------------------------------------|
Bb-------3-------5-------2---0----------------------------------------------------------|
Gb-------4-------6-------2---1----------------------------------------------------------|
Db-----4-4-----6-6-----2-2---2----------------------------------------------------------|
Ab---2---2---4---4-------x---2----------------------------------------------------------|
Eb-------------------2---2---0----------------------------------------------------------|

Outro
eb---1---0---0--------------------------------------------------------------------------|
Bb---1---0---2--------------------------------------------------------------------------|
Gb---2---1---2--------------------------------------------------------------------------|
Db---3---2---2--------------------------------------------------------------------------|
Ab---3---2---0--------------------------------------------------------------------------|
Eb---1---0------------------------------------------------------------------------------|
            
Hard to play? Try these video lessons and learn fast. | Correct




comments powered by Disqus
↑ Back to top | Tablatures and chords are parodies/interpretations of the original songs. You may use it for private study, scholarship, research or language learning purposes only