» » »

Best Damn Undertow Jocke Tabs (ver.1)

Artists:  A B C D E F G H I J K L M N O P Q R S T U V W X Y Z # 

Best Damn Undertow Jocke Tabs (ver.1)

Candid Daydream
Rating:
0/5 (0 votes)

Hard to play? Try these video lessons and learn fast.
                Tuning: Down 1/2 Step

Intro
         
eb------------------------------|-------------------------------------------------------|
Bb---xxx-44-xxx-44-xxx-44-------|------xx-44-xxx-44-5-----------------------------------|
Gb---xxx-44-xxx-44-xxx-44---464-|------xx-44-xxx-44-4-----------------------------------|
Db---xxx-44-xxx-44-xxx-44---444-|-X3---xx-44-xxx-44-4-----------------------------------|
Ab---222----xxx----xxx----------|------22----xxx----------------------------------------|
Eb----------222----000----------|------------222----------------------------------------|


Verse ("Well I'm not as sharp as I used to be...")
    
eb--------------------------------------------------------------------------------------|
Bb---xxx-44-xxx-44-xxx-44---------------------------------------------------------------|
Gb---xxx-44-xxx-44-xxx-44---464---------------------------------------------------------|
Db---xxx-44-xxx-44-xxx-44---444---------------------------------------------------------|
Ab---222----xxx----xxx------------------------------------------------------------------|
Eb----------222----000------------------------------------------------------------------|


Pre Chorus ("And it feels alright")

eb---44-66-00000000---------------------------------------------------------------------|
Bb---55-77-00000000---------------------------------------------------------------------|
Gb---66-88-11111111---------------------------------------------------------------------|
Db---66-88-22222222---------------------------------------------------------------------|
Ab---------22222222---------------------------------------------------------------------|
Eb---------00000000---------------------------------------------------------------------|


Chorus ("You won't ever take me down...")

eb------00-------|------44----0---------------------------------------------------------|
Bb---44-00-44-22-|------55-22-0---------------------------------------------------------|
Gb---44-11-44-33-|------66-33-1---------------------------------------------------------|
Db---44-22-44-44-|-X3---66-44-2---------------------------------------------------------|
Ab---22-22-22-44-|---------44-2---------------------------------------------------------|
Eb------00----22-|---------22-0---------------------------------------------------------|


Bridge("I don't miss the things that I used to miss...")

eb---------------00000000-2222222222222222----------------------------------------------|
Bb---------------00000000-2222222222222222----------------------------------------------|
Gb---------------11111111-3333333333333333----------------------------------------------|
Db---------------22222222-4444444444444444----------------------------------------------|
Ab---2-------2---22222222-4444444444444444----------------------------------------------|
Eb-----2-0-----2-00000000-2222222222222222----------------------------------------------|


Outro
eb---44-22-0----------------------------------------------------------------------------|
Bb---55-22-0----------------------------------------------------------------------------|
Gb---66-33-1----------------------------------------------------------------------------|
Db---66-44-2----------------------------------------------------------------------------|
Ab------44-2----------------------------------------------------------------------------|
Eb------22-0----------------------------------------------------------------------------|
            
Hard to play? Try these video lessons and learn fast. | Correct




comments powered by Disqus
↑ Back to top | Tablatures and chords are parodies/interpretations of the original songs. You may use it for private study, scholarship, research or language learning purposes only