>
 >
Me

Me Guitar Tabs

Cancerslug - Me chords, tabs, tablatures, lyrics

Guitar lessons | Add/correct | Request | Top 50 tabs Artists:  A B C D E F G H I J K L M N O P Q R S T U V W X Y Z 0-9

Me Guitar Tabs – Cancerslug

CD, Sheet music, Poster

Do you like Me? Share with your friends now
Tabs
band: cancerslug

tuning: one semitone below standard E

this is using the tales of a butcher version, the original recording differs a bit

intro (clean) 

first half

e-|---------------------------------------------------------------------------|
B-|-----6---------------6---------------6---------------6---------------6-----|
G-|---7---7---7---7---7---7---7---7---7---7---7---7---7---7-----------7---7---|
D-|-7-------7---7---8-------8---8---5-------5---5---7-------7-8-7-5-7-------7-|
A-|---------------------------------------------------------------------------|
E-|---------------------------------------------------------------------------|

e-|-------------------------------------------------------|
B-|-----------6---------------6-------6---------6---------|
G-|-7---7---7---7---7---7---7---7---7---7-----7---7---7---|
D-|---7---8-------8---8---7-----------------7-------7---7-|
A-|-------------------------------7-------5---------------|
E-|-------------------------------------------------------|

second half

e-|-----------------------------------------------------------------|
B-|-----------------------------------------------------------------|
G-|-----2---3-2---2-----2---3-2---2-----2---3-2---2-----0-----0-----| always x2
D-|---2---2-----2-----2---2-----2-----2---2-----2-----2-----2-----2-|
A-|-0---------------0---------------0---------------3-----2-----2---|
E-|-----------------------------------------------------------------|

repeat first half
repeat second half
repeat first half
then..

verse

e-|-----------------------------------------|
B-|-------6---------6---------6---------6---|
G-|-----7---7-----7---7-----7---7-----7---7-| always x4
D-|---7---------7---------7---------7-------|
A-|-5---------8---------7---------5---------|
E-|-----------------------------------------|

break (distorted)

e-|-------------------------------------------------------|
B-|-------------------------------------------------------|
G-|-7-7-7-7-7-7-6-6-6-6-6-6-7-7-7-7-7-7-13-13-13-13-13-13-| always x2
D-|-7-7-7-7-7-7-6-6-6-6-6-6-7-7-7-7-7-7-13-13-13-13-13-13-|
A-|-5-5-5-5-5-5-4-4-4-4-4-4-5-5-5-5-5-5-11-11-11-11-11-11-|
E-|-------------------------------------------------------|


verse
break
verse
break
verse
break
then..

chorus (distorted)

e-|---------------------------------------------|
B-|---------------------------------------------|
G-|---------------------------------------------| x4
D-|-0--0--0-0--3--3--3-3--7--7--7-7--0--0-0-0-0-|
A-|-0--0--0-0--3--3--3-3--7--7--7-7--0--0-0-0-0-|
E-|-0--0--0-0--1--1--1-1--5--5--5-5--0--0-0-0-0-|
                                       {m u t e}

-cont'd- (lyrics: "cannot control")

e-|-----------------------------------------|
B-|-----------------------------------------|
G-|-----------------------------------------|
D-|-7-7-7-0--0-0-0-0-7-7-7-0--0-0-0-0-7-7-7-|
A-|-7-7-7-0--0-0-0-0-7-7-7-0--0-0-0-0-7-7-7-|
E-|-5-5-5-0--0-0-0-0-5-5-5-0--0-0-0-0-5-5-5-|
            {m u t e}        {m u t e} 

outro

e-|---------------------------------------------------------------------|
B-|-----6---------------6---------------6---------------6-------------6-|
G-|---7---7---7---7---7---7---7---7---7---7---7---7---7---7-----------7-|
D-|-7-------7---7---8-------8---8---5-------5---5---7-------7-8-7-5-7-7-|
A-|---------------------------------------------------------------------|
E-|---------------------------------------------------------------------|

lyrics:
i am shit but at least i am me
i am scarred with malfunction disease
i am blackness of heart, mind and soul
i am that which you cannot control





Comments


Popular Cancerslug tabs & chords
Demonic Angel Bass Tabs
A Lullaby To Help You Die Tabs
Alleyways And Ditches Intro Tabs
Gone Intro Tabs
I Want To Fuck Your Girl Friend Tabs
In Dreams Tabs
My Black Angel Tabs
Nadia Intro Tabs
Shapeshift Intro Tabs
So Many Dead Tabs


Song lyrics



↑ Back to top | Tablatures and chords are parodies/interpretations of the original songs. You may use it for private study, scholarship, research or language learning purposes only
© 2014 AZChords.com Contact us | Privacy policy | DMCA | Add/correct tabs | Request tabs | Top 50 tabs