» » »

Fetus Milkshake Tabs (ver.1)

Artists:  A B C D E F G H I J K L M N O P Q R S T U V W X Y Z # 

Fetus Milkshake Tabs (ver.1)

Cancerslug
Rating:
0/5 (0 votes)

Tabs too difficult? Try these video lessons and learn fast.
                -------------------------------------------------------------------------------
                             Fetus Milkshake-CancerSlug
-------------------------------------------------------------------------------


Tuning:standard


Intro
e|----------------------------------------------------------------|
B|----------------------------------------------------------------|
G|----------------------------------------------------------------|
D|----------------------------------------------------------------|
A|1010-999-777-555-2----------------------------------------------|
E|8888-777-555-333-0----------------------------------------------|


Hold On.....

e|-------------------------------------------------------------------|
B|-------------------------------------------------------------------|
G|-------------------------------------------------------------------|
D|-------------------------------------------------------------------|
A|2222-10101010-9999-777-555-22--------------------------------------|
E|0000-88888888-7777-555-333-00--------------------------------------|

And when you're safe...
e|-----------------------------------------------------|
B|-----------------------------------------------------|
G|-----------------------------------------------------|
D|-----------------------------------------------------|
A|2222222-555555---------------------------------------|
E|0000000-333333---------------------------------------|


And dont feel bad you'll find them down the drain

e|------------------------------------------------------------|
B|------------------------------------------------------------|
G|------------------------------------------------------------|
D|------------------------------------------------------------|
A|777777-10101010---------------------------------------------|
E|555555-88888888---------------------------------------------|


Hold on...
e|-------------------------------------------------------------------------|
B|-------------------------------------------------------------------------|
G|-------------------------------------------------------------------------|
D|-------------------------------------------------------------------------|
A|-555555-22222-101010-999-55----------------------------------------------|
E|-333333-00000-888888-777-33----------------------------------------------|

Hold their mothers tight

e|------------------------------------------------------------------|
B|------------------------------------------------------------------|
G|------------------------------------------------------------------|
D|------------------------------------------------------------------|
A|22222-1010-9999-777-5---------------------------------------------|
E|00000-8888-7777-555-3---------------------------------------------|

| /  slide up
| \  slide down
| h  hammer-on
| p  pull-off
| ~  vibrato
| +  harmonic
| x  Mute note
            
Tabs too difficult? Try these video lessons and learn fast.


comments powered by Disqus
↑ Back to top | Tablatures and chords are parodies/interpretations of the original songs. You may use it for private study, scholarship, research or language learning purposes only