» » »

So Jealous Bass tabs (ver.1)

Artists:  A B C D E F G H I J K L M N O P Q R S T U V W X Y Z # 

So Jealous Bass tabs (ver.1)

Cancer Bats
Rating:
0/5 (0 votes)

Hard to play? Try these video lessons and learn fast.
                So Jealous by Cancer Bats
Standard Tuning
Peace and Love!

Intro/Verse
|----------------------------------------------------------------|
|----------------------------------------------------------------|
|-1-1-1-1-1-1-1-1-1-1-1-1-1-1-1-1-1-1-1-1-1-1-1-1-1-1-1-1-1-1-1-1|
|----------------------------------------------------------------|

|----------------------------------------------------------------|
|----------------------------------------------------------------|
|-4-4-4-4-4-4-4-4-4-4-4-4-4-4-4-4-4-4-4-4-4-4-4-4-4-4-4-4-4-4-4-4|
|----------------------------------------------------------------|

On the last go through during verse, repeat the second part once.

Bridge
|-------/777------/777------/777-------|
|--------------------------------------|
|-5---5-----5---5-----5---5-----5---5-5|
|--------------------------------------|

Chorus
|----------------------------------------/777--------/777-|
|---------------------------------------------------------|
|-4-4-4-4-4-4-4-4-4-4-4-4-4-4-4-4-5-5-5-------5-5-5-------|
|---------------------------------------------------------|

|----------------------------------------/777-------/777--|
|---------------------------------------------------------|
|-4-4-4-4-4-4-4-4-4-4-4-4-4-4-4-4-5-5-5------5-5-5--------|
|---------------------------------------------------------|

|----------------------------------------------------------------|
|----------------------------------------------------------------|
|-7-7-7-7-7-7-7-7-7-7-7-7-7-7-7-7-5-5-5-5-5-5-5-5-5-5-5-5-5-5-5-5|
|----------------------------------------------------------------|

|----------------------------------------------------------------|
|----------------------------------------------------------------|
|-7-7-7-7-7-7-7-7-7-7-7-7-7-7-7-7-5-5-5-5-5-5-5-5-5-5-5-5-5-5-5-5|
|----------------------------------------------------------------|


During final chorus play the first 2 lines twice, then the last two.

Order:
Intro
Verse
Bridge
Chorus
Intro bit again
Verse
Bridge
Chorus
            
Hard to play? Try these video lessons and learn fast. | Correct




comments powered by Disqus
↑ Back to top | Tablatures and chords are parodies/interpretations of the original songs. You may use it for private study, scholarship, research or language learning purposes only