» » »

Cancer Bats, Shillelagh Tabs (ver.1)

Artists:  A B C D E F G H I J K L M N O P Q R S T U V W X Y Z # 

Shillelagh Tabs (ver.1)

Cancer Bats Tabs
 Rating:
4.7/5 (14 votes)
Shillelagh lessons Tabs too difficult? Try these video lessons and learn fast
                  Hey, this song is shillelagh from Cancer Bats and I hope you like
it... This is my first tab so go easy on me!!

  /  Slide Up
  \  Slide Down
  h  Hammer-On
  b  Bend
  p  Pull-Off
  ~  Vibrato
 <>  Harmonic
  *  Palm Mute

Tuning : Drop C (Cgcfad)

d||------------------------------------------------------------||
a||------------------------------------------------------------||
f||------------------------------------------------------------||
c||-----------5-3--5-5----------5-3--5-5----------5-3--5-5-----||
g||---0-5p3p0-5-3--5-5--0-5p3p0-5-3--5-5--0-5p3p0-5-3--5-5-----||
C||-----------5-3--5-5----------5-3--5-5----------5-3--5-5-----||
                                                                | 2X
d||------------------------|                                    |
a||------------------------|                                    |
f||------------------------|                                    |
c||---0-5-3--0-3--5-5------|                                    |
g||---0-5-3--0-3--5-5------|                                    |
C||---0-5-3--0-3--5-5------|                                    |


d||-----------------------------------------------------------------------||
a||-----------------------------------------------------------------------||
f||-----------------------------------------------------------------------||
c||---0-0-8\7--0-5/7--0-0--0-0--0-0--0-0-0-8\7--0-8\7--0-5p3p0------------||
g||---0-0-6\5--0-3/5--0-0--0-0--0-0--0-0-0-6\5--0-6\5----------5p3p0-<5>--||
C||---0-0------0------0-0--0-0--0-0--0-0-0------0-------------------------||
pm|   * *      *      * *  * *  * *  * * *      *

d||-----------------------------------------------------------------------||
a||-----------------------------------------------------------------------||
f||-----------------------------------------------------------------------||
c||---0-0-8\7--0-5/7--0-0--0-0--0-0--0-0-0-8\7--0-8\7--0-3/5-5-5-5-5------||
g||---0-0-6\5--0-3/5--0-0--0-0--0-0--0-0-0-6\5--0-6\5--0-1/3-3-3-3-3------||
C||---0-0------0------0-0--0-0--0-0--0-0-0------0------0---------------/-\||
Pm|   * *      *      * *  * *  * *  * * *      *      *

d||------------------------------------------------------------||
a||------------------------------------------------------------||
f||------------------------------------------------------------||
c||-----------5-3--5-5----------5-3--5-5----------5-3--5-5-----||
g||---0-5p3p0-5-3--5-5--0-5p3p0-5-3--5-5--0-5p3p0-5-3--5-5-----||
C||-----------5-3--5-5----------5-3--5-5----------5-3--5-5-----||
                                                                | 2X
d||------------------------|                                    |
a||------------------------|                                    |
f||------------------------|                                    |
c||---0-5-3--0-3--5-5------|                                    |
g||---0-5-3--0-3--5-5------|                                    |
C||---0-5-3--0-3--5-5------|                                    |


d||-----------------------------------------------------------------||
a||-----------------------------------------------------------------||
f||-----------------------------------------------------------------||
c||-----------------------------------------------------------------||
g||------------------------------------------<8>-----<7>-----<6>----||
C||---0-3--0-0--0-3--0-0--0-5--0-0—-0-5--3-5-----0-3-----0-3--------||
Pm|                                      * *

d||-----------------------------------------------------------------------||
a||-----------------------------------------------------------------------||
f||-----------------------------------------------------------------------||
c||---0-3-6--0-3-5--0-3-0--0-3-0--0-5-0--0-5-0----------------------------||
g||---0-3-6--0-3-5--0-3-0--0-3-0--0-5-0--0-5-0------<8>-----<7>-----<6>---||
C||---0-3-6--0-3-5--0-3-0--0-3-0--0-5-0--0-5-0--3-5-----0-3-----0-3-------||
Pm|                                             * *

d||-----------------------------------------------------------------------||
a||-----------------------------------------------------------------------||
f||-----------------------------------------------------------------------||
c||---0-3-6--0-3-5--------------------------------------------------------||
g||---0-3-6--0-3-5--------------------------------------------------------||
C||---0-3-6--0-3-5--0-3h4p3~--0-2h3p2~--0-1h2p1~--0-0h1p0-----------------||
                   \---------------- 3X ----------------/                 ||

d||-------------------------------------------||
a||-------------------------------------------||
f||-------------------------------------------||
c||---0-0--0--0-0--0--0-0--0------------------||
g||---0-0--0--0-0--0--0-0--0------------------||
C||---0-0--0--0-0--0--0-0--0------------------||
Pm|   * *     * *     * *

d||------------------------------------------------------0-----0-----0----||
a||------------------------------------------------------0-----0-----0----||
f||------------------------------------------------------0-----0-----0----||
c||---10-9-5-6---10-9-5-6-----------------------10-9-5-6---6-6---6-6---6--||
g||---10-9-5-6---10-9-5-6--6-6-6-6-6-6-6-6-6-6--10-9-5-6---6-6---6-6---6--||
C||---10-9-5-6---10-9-5-6--6-6-6-6-6-6-6-6-6-6--10-9-5-6---6-6---6-6---6--||
Pm|                        * * * * * * * * * *

d||-----------0-----0-----0-------------0-----0-----0----------------------|
a||-----------0-----0-----0-------------0-----0-----0----------------------|
f||-----------0-----0-----0-------------0-----0-----0----------------------|
c||--10-9-5-6---6-6---6-6---6--10-9-5-6---6-6---6-6---6—-10-9-5-6--6-6-0-3-|
g||--10-9-5-6---6-6---6-6---6--10-9-5-6---6-6---6-6---6—-10-9-5-6--6-6-0-3-|
C||--10-9-5-6---6-6---6-6---6--10-9-5-6---6-6---6-6---6—-10-9-5-6--6-6-0-3-|

d||------------------------0-----0-----0----------------------------------||
a||------------------------0-----0-----0----------------------------------||
f||------------------------0-----0-----0----------------------------------||
c||---0-3-6--6-6--10-9-5-6---6-6---6-6---6--10-9-5-6----------------------||
g||---0-3-6--6-6--10-9-5-6---6-6---6-6---6--10-9-5-6-6-6-6-6-6-6-6-6-6-6--||
C||---0-3-6--6-6--10-9-5-6---6-6---6-6---6--10-9-5-6-6-6-6-6-6-6-6-6-6-6--||
Pm|                                                  * * * * * * * * * *

d||------------0-----0-----0---------------------------------------------||
a||------------0-----0-----0---------------------------------------------||
f||------------0-----0-----0---------------------------------------------||
c||---10-9-5-6---6-6---6-6---6--10-9-5-6--6-6--0-3-0-3-6--6-6-5--5-5-3---||
g||---10-9-5-6---6-6---6-6---6--10-9-5-6--6-6--0-3-0-3-6--6-6-5--5-5-3---||
C||---10-9-5-6---6-6---6-6---6--10-9-5-6--6-6--0-3-0-3-6--6-6-5--5-5-3---||
                                                       \-----------------||4X

d||--------------------------------------------------------------------||   a||-||
f||-----------------------------------------------------------------------------||
c||---0-3-0-3-0-3-0-------------------------------------------------------------||
g||---0-3-0-3-0-3-0-------------------------------------------------------------||
C||---0-3-0-3-0-3-0-------------------------------------------------------------||
  ------------------------------------------------------------------------------||

d||------------------------------------------||
a||------------------------------------------||
f||------------------------------------------||
c||---0--0-0-0-0-0-0-0-----------------------||6X
g||---0--0-0-0-0-0-0-0--6-3---------5--------||
C||---0--0-0-0-0-0-0-0------6-3-0-3----------||

d||-----------------------------------------------------------------------||
a||-----------------------------------------------------------------------||
f||-----------------------------------------------------------------------||
c||---0--0-0-0-0-0-0-0----------------------------------------------------||
g||---0--0-0-0-0-0-0-0--6-3---------<5>--6-3---------<5>--6-3---------<5>-||
C||---0--0-0-0-0-0-0-0------6-3-0-3----------6-3-0-3----------6-3-0-3-----||

d||----------------------||
a||----------------------||
f||----------------------||
c||----------------------||
g||---6-3---------<5>----||
C||-------6-3-0-3--------||

d||----------------------------------------------------------||
a||----------------------------------------------------------||
f||----------------------------------------------------------||
c||---5--5--5--6--6-6-0-0-0-0-0-0--5--5--5--6--6-6-0---------||
g||---5--5--5--6--6-6-0-0-0-0-0-0--5--5--5--6--6-6-0---------||
C||---5--5--5--6--6-6-0-0-0-0-0-0--5--5--5--6--6-6-0--/8~----||

d||----------------------------------------------------------||
a||----------------------------------------------------------||
f||----------------------------------------------------------||
c||---5--5--5--6--6-6-0-0-0-0-0-0--5--5--5--6--6-6-0---------||
g||---5--5--5--6--6-6-0-0-0-0-0-0--5--5--5--6--6-6-0---------||
C||---5--5--5--6--6-6-0-0-0-0-0-0--5--5--5--6--6-6-0—-2b~----||

d||------------------------------------||
a||------------------------------------||
f||------------------------------------||
c||---3---0---5----5/---10---9\---2----||4X
g||---3---0---5----5/---10---9\---2----||
C||---3---0---5----5/---10---9\---2----||


d||-----------------------------------------------------------------------||
a||-----------------------------------------------------------------------||
f||-----------------------------------------------------------------------||
c||--------------------------------------3---0---5------------------------||
g||--------0------------------------2----3---0---5------------------------||
C||---3~---0---5~---5/---10~---9\---2----3---0---5------------------------||

PLEASE RATE!!!
            
Submit corrections

comments powered by Disqus
↑ Back to top | Cancer Bats Tabs for Shillelagh. Lyrics for acoustic guitar and electric guitar. Tablatures and chords are parodies/interpretations of the original songs. You may use it for private study, scholarship, research or language learning purposes only