» » »

Cancer Bats, Road Sick Bass tabs (ver.1)

Artists:  A B C D E F G H I J K L M N O P Q R S T U V W X Y Z # 

Road Sick Bass tabs (ver.1)

Cancer Bats Tabs
 Rating:
4/5 (4 votes)
Road Sick lessons Tabs too difficult? Try these video lessons and learn fast
                Cancer Bats - Road Sick

Drop C 

Riff 1:

|----------------------------------------------------------------|
|----------------------------------------------------------------|
|--8---5-5-5-5-5-5-8---5-5-5-5-5-5-8---5-5-5-5-5-5--2/3-3-3/5-5--|
|----------------------------------------------------------------|

Riff 2:

|-------------------------------|
|-------------------------------|
|--8p5-5~---8p5-0h3-------3h5~--|
|-------------------0h3h5-------|

Riff 3:

|-------------------------------------------------------|
|-------------------------------------------------------|
|--8p5-5--5-5-5-5-5-5-5-5-5-5-5-5-5-5----8p5-0h3--------|
|------------------------------------------------0h3h5--|

Riff 4

|----------------------------------------------------------|
|--------------7--7-7-7-7-7-7-8--8-8-8-8-8-8---------------|
|---------------------------------------------6-6-6-6-6h8--|
|--5-5-5-5-5-5---------------------------------------------|

Riff 5:

|----------------------------------------------------------|
|----------------------------------------------------------|
|----------------------------------------------------------|
|--10--10-10--10-10--10--10-10--10-10--7-7-7-7-7-7-7-7-7-7-|

SONG GOES:
Riff 1 X2
Riff 2 X3
Riff 3 X1
Riff 4 X2
Riff 1 X2
Riff 2 X3
Riff 3 X1
Riff 4 X2
Riff 1 X2 
Riff 5 X2
Riff 1 X2
Riff 4 X4
Riff 1 till end

(Credit to XXdevdogXX1928 for the guitar tab)
            
Submit corrections

comments powered by Disqus
↑ Back to top | Cancer Bats Bass for Road Sick. Lyrics for acoustic guitar and electric guitar. Tablatures and chords are parodies/interpretations of the original songs. You may use it for private study, scholarship, research or language learning purposes only