>
 >
Pneumonia Hawk

Pneumonia Hawk Guitar Tabs

Cancer Bats - Pneumonia Hawk chords, tabs, tablatures, lyrics

Guitar lessons | Add/correct | Request | Top 50 tabs Artists:  A B C D E F G H I J K L M N O P Q R S T U V W X Y Z 0-9

Pneumonia Hawk Guitar Tabs – Cancer Bats

CD, Sheet music, Poster

Do you like Pneumonia Hawk? Share with your friends now
Bass TabsTabs
----------------------------------------------------------------------------
                          Pneumonia Hawk  Cancer Bats
----------------------------------------------------------------------------

Tuning: Drop C (CGCFAD)

D|-------0-------0-------0--------------|
A|-------0-------0-------0--------------|
F|-------0-------0-------0--------------|
C|---0h1-----0h1-----0h1-----3p1-0------|6X
G|---0h1-----0h1-----0h1-----3p1-0------|
C|---0h1-----0h1-----0h1-----3p1-0------|

D|-------------------------------------------------------------------|
A|---7-7-7-7-6-6-6-------------------7-7-7-7-6-6-6-------------------|
F|---8-8-8-8-7-7-7-------------------8-8-8-8-7-7-7-------------------|
C|---8-8-8-8-7-7-7-6\--0-0-0-1-1-0---8-8-8-8-7-7-7-6\--0-0-0-----0---|2X
G|---6-6-6-6-5-5-5-6\--0-0-0-1-1-0---6-6-6-6-5-5-5-6\--0-0-0-----0---|
C|-----------------6\--0-0-0-1-1-0-----------------6\--0-0-0-<1>-0---|
                       * * *                           * * *

D|---------------------------------------------------------------------|
A|---------------------------------------------------------------------|
F|---------------------------------------------------------------------|
C|---6-----6\5-----5\4---------------5-----5\4-----4\3-------0-1-3-1---|
G|---4-----4\3-----3\2---------------3-----3\2-----2\1-------0-1-3-1---|
C|-----0-0-----0-0-----0-0-0-0-1-3-1---0-0-----0-0-----0-0-0-0-1-3-1---|
       * *     * *     * * * * * * *   * *     * *     * * *

D|---------------------------------------------------------------------|
A|---------------------------------------------------------------------|
F|---------------------------------------------------------------------|
C|---6-----6\5-----5\4---------------5-----5\4-----4\3-3-3-3-3---------|
G|---4-----4\3-----3\2---------------3-----3\2-----2\1-1-1-1-1---------|
C|-----0-0-----0-0-----0-0-0-0-1-3-1---0-0-----0-0---------------------|
       * *     * *     * * * * * * *   * *     * *     

D|--------------------------------------------------------------0------0-|
A|--------------------------------------------------------------0------0-|
F|--------------------------------------------------------------0------0-|
C|-8-8--5-5--7-7--3-3--0-0-0-0-0-0-0-0--7-7--4-4--6-6--2-2--0h1-0--0h1-0-|2X
G|-8-8--5-5--7-7--3-3--0-0-0-0-0-0-0-0--7-7--4-4--6-6--2-2--0h1----0h1---|
C|-8-8--5-5--7-7--3-3--0-0-0-0-0-0-0-0--7-7--4-4--6-6--2-2--0h1----0h1---|

D|-------0-------0-------0--------------|
A|-------0-------0-------0--------------|
F|-------0-------0-------0--------------|
C|---0h1-----0h1-----0h1-----3p1-0------|4X
G|---0h1-----0h1-----0h1-----3p1-0------|
C|---0h1-----0h1-----0h1-----3p1-0------|

D|-------------------------------------------------------------------|
A|---7-7-7-7-6-6-6-------------------7-7-7-7-6-6-6-------------------|
F|---8-8-8-8-7-7-7-------------------8-8-8-8-7-7-7-------------------|
C|---8-8-8-8-7-7-7-6\--0-0-0-1-1-0---8-8-8-8-7-7-7-6\--0-0-0-----0---|2X
G|---6-6-6-6-5-5-5-6\--0-0-0-1-1-0---6-6-6-6-5-5-5-6\--0-0-0-----0---|
C|-----------------6\--0-0-0-1-1-0-----------------6\--0-0-0-<1>-0---|
                       * * *                           * * *

D|-----0-------0-----0-------0-----0-------0-----0-----------|
A|-----0-------0-----0-------0-----0-------0-----0-----------|
F|-----0-------0-----0-------0-----0-------0-----0-----------|
C|---1-----0h1-----1-----0h1-----1-----0h1-----1-----3p1-0---|4X
G|---1-----0h1-----1-----0h1-----1-----0h1-----1-----3p1-0---|
C|---1-----0h1-----1-----0h1-----1-----0h1-----1-----3p1-0---|

D|-------------------------------------|
A|-------------------------------------|
F|-------------------------------------|
C|-------------------------------------|5X
G|-------------------------------------|
C|---0-1h2h3-1--0--0-0-1h2h3-1--0--0---|

D|-----------------------------------------|
A|-----------------------------------------|
F|-----------------------------------------|
C|---12--0-10--0-12--0-6\5--5-5-5--5-5-5---|4X
G|---12--0-10--0-12--0-6\5--5-5-5--5-5-5---|
C|---12--0-10--0-12--0-6\5--5-5-5--5-5-5---|

D|-------------------------------------|
A|-------------------------------------|
F|-------------------------------------|
C|-------------------------------------|4X
G|-------------------------------------|
C|---0-1h2h3-1--0--0-0-1h2h3-1--0--0---|

D|-----------------------------------------|
A|-----------------------------------------|
F|-----------------------------------------|
C|---12--0-10--0-12--0-6\5--5-5-5--5-5-5---|3X
G|---12--0-10--0-12--0-6\5--5-5-5--5-5-5---|
C|---12--0-10--0-12--0-6\5--5-5-5--5-5-5---|

D|----------------------------------------|
A|----------------------------------------|
F|----------------------------------------|
C|----------------------------------------|4X
G|----------------------------------------|
C|---1h2h3-1--1h2h3-0--1h2h3-1--1h2h3-0---|

D|--------------------------------------------|
A|--------------------------------------------|
F|--------------------------------------------|
C|---1h2h3-<1>--1h2h3----1h2h3-<1>--1h2h3-----|4X
G|--------------------------------------------|
C|--------------------0-------------------0---|

D|-----------|
A|-----------|
F|-----------|
C|---0-------|
G|---0-------|
C|---0-------|

| *  Palm mute
| /  slide up
| \  slide down
| h  hammer-on
| p  pull-off
| ~  vibrato
| <> harmonic
============================================================================





Comments


Popular Cancer Bats tabs & chords
Hail Destroyer Bass Tabs
Harem Of Scorpions Bass Tabs
Road Sick Bass Tabs
Sabotage 2 Bass Tabs
So Jealous Bass Tabs
100 Grand Canyon Intro Tabs
French Immersion 1 Tabs
Raised Right Tabs
Shillelagh Tabs
Sorceress Tabs


Song lyrics



↑ Back to top | Tablatures and chords are parodies/interpretations of the original songs. You may use it for private study, scholarship, research or language learning purposes only
© 2014 AZChords.com Contact us | Privacy policy | DMCA | Add/correct tabs | Request tabs | Top 50 tabs