>
 >
Pneumonia Hawk

Pneumonia Hawk Bass Tabs

Cancer Bats - Pneumonia Hawk chords, tabs, tablatures, lyrics

Guitar lessons | Add/correct | Request | Top 50 tabs Artists:  A B C D E F G H I J K L M N O P Q R S T U V W X Y Z 0-9

Pneumonia Hawk Bass Tabs – Cancer Bats

CD, Sheet music, Poster

Do you like Pneumonia Hawk? Share with your friends now
Bass TabsTabs
-------------------------------------------------------------------------------
-------------------------------------------------------------------------------


Please note it is my first attempt at tabbing a song. Not sure if it is 100%
correct but e-mail me if you have corrections/comments.

Tuning:CGCF

wait for guitar and come in at 0:02

F|----------------------|
C|----------------------|
G|----------------------|
C|---3p1-0~------3p1-0--|

F|-----------------------------------|
C|-------0-------0-------0-----------|
G|-----------------------------------| x 4
C|---0h1-----0h1-----0h1-----3p1-0---|

F|----------------------------------------------------------------|
C|----------------------------------------------------------------|
G|---6-6-6-6-5-5-5-------------------6-6-6-6-5-5-5----------------|
C|-----------------6\--0-0-0-1-1-0-----------------6\--0-0-0-1b-0-|


F|------------------------------------------------------------------|
C|------------------------------------------------------------------|
G|---6-6-6-6-5-5-5-------------------6-6-6-6-5-5-5------------------|
C|-----------------6\--0-0-0-1-1-0-----------------6\--0-0-0-1b-0---|

F|-----------------------------------------------------------------------|
C|-----------------------------------------------------------------------|
G|---4-----4\3-----3\2-----------------3-----3\2-----2\1-----------------|
C|-----0-0-----0-0-----0-0-0-0-1-3-1-0---0-0-----0-0-----0-0-0-0-1-3-1-0-|

F|----------------------------------------------------------------------|
C|----------------------------------------------------------------------|
G|---4-----4\3-----3\2-----------------3-----3\2-----2\1-1-1-1-1--------|
C|-----0-0-----0-0-----0-0-0-0-1-3-1-0---0-0-----0-0--------------------|

F|-------------------------------------------------------------------------|
C|--------------------------------------------------------------0------0---|
G|-------------------------------------------------------------------------|
C|-8-8--5-5--7-7--3-3--0-0-0-0-0-0-0-0--7-7--4-4--6-6--2-2--0h1----0h1-----|

F|-------------------------------------------------------------------------|
C|--------------------------------------------------------------------0----|
G|-------------------------------------------------------------------------|
C|-8-8--5-5--7-7--3-3--0-0-0-0-0-0-0-0--7-7--4-4--6-6--2-2--0h1-0h1--------|

F|-----------------------------------|
C|-------0-------0-------0-----------|
G|-----------------------------------| x 4
C|---0h1-----0h1-----0h1-----3p1-0---|

F|----------------------------------------------------------------|
C|----------------------------------------------------------------|
G|---6-6-6-6-5-5-5-------------------6-6-6-6-5-5-5----------------|
C|-----------------6\--0-0-0-1-1-0-----------------6\--0-0-0-1b-0-|

F|-----------------------------------------------------------------|
C|-----------------------------------------------------------------|
G|---6-6-6-6-5-5-5-------------------6-6-6-6-5-5-5-----------------|
C|-----------------6\--0-0-0-1-1-0-----------------6\--0-0-0-1b-0--|

F|----------------------------------------------------------|
C|-----0-------0-----0-------0-----0-------0-----0----------|
G|----------------------------------------------------------| x 4
C|---1-----0h1-----1-----0h1-----1-----0h1-----1-----3p1-0--|

pause for guitar

F|-----------------------------------------------------------|
C|-----------------------------------------------------------|
G|-----------------------------------------------------------| x 3
C|---0-1h2h3-1--0--0-0-1h2h3-1--0--0-------------------------|

F|------------------------------------|
C|------------------------------------|
G|------------------------------------| x 4
C|---12-0-10-0-12--0-6\5-5-5--5-5-5---|

F|-----------------------------------------------------------|
C|-----------------------------------------------------------|
G|-----------------------------------------------------------| x 4
C|---0-1h2h3-1--0--0-0-1h2h3-1--0--0-------------------------|

F|-----------------------------------|
C|-----------------------------------|
G|-----------------------------------| x 3
C|---12-0-10-0-12-0-6\5-5-5--5-5-5---|

F|-----------------------------|
C|-----------------------------|
G|-----------------------------| x 15
C|-----1h2h3-1-----1h2h3-0-----|

F|-------|
C|-------|
G|-------|
C|---0---|

| /  slide up
| \  slide down
| h  hammer-on
| p  pull-off
| ~  sustain
| +  harmonic
| b  bend





Comments


Popular Cancer Bats tabs & chords
Road Sick Bass Tabs
So Jealous Bass Tabs
Bastard's Waltz Tabs
Dead Wrong Tabs
Diamond Mine Tabs
French Immersion 1 Tabs
Harem Of Scorpions Tabs
One Hundred Grand Canyon Intro Tabs
Raised Right Tabs
Sleep This Away Tabs


Song lyrics



↑ Back to top | Tablatures and chords are parodies/interpretations of the original songs. You may use it for private study, scholarship, research or language learning purposes only
© 2014 AZChords.com Contact us | Privacy policy | DMCA | Add/correct tabs | Request tabs | Top 50 tabs