>
 >
Lucifer's Rocking Chair 1

Lucifer's Rocking Chair 1 Guitar Tabs

Cancer Bats - Lucifer's Rocking Chair 1 chords, tabs, tablatures, lyrics

Guitar lessons | Add/correct | Request | Top 50 tabs Artists:  A B C D E F G H I J K L M N O P Q R S T U V W X Y Z 0-9

Lucifer's Rocking Chair 1 Guitar Tabs – Cancer Bats

CD, Sheet music, Poster

Do you like Lucifer's Rocking Chair 1? Share with your friends now
TabsTabs v2
Cancer Bats
Lucifer's Rocking Chair
Hail Destroyer

First attempt at a tab but this sounds better and is much more accurate than those 
on here already so I though I'd share. 
The three high string bends can be tricky to nail so get practising kiddies...

Tuning: Drop C [CGCFAD]




Riff A - Intro & Verse

D|---2-3-----2-----2-2-----2-2-----2-----2b3r2-----2-2-----2-----2-2-----5-5-5-5-5/7-7b8r7----|
A|---3-2-----3-----3-3-----3-3-----3-----3b4r3-----3-3-----3-----3-3-----6-6-6-6-6/8-8b9r8----|
F|---2-3-----2-----2-2-----2-2-----2-----2b3r2-----2-2-----2-----2-2-----5-5-5-5-5/7-7b8r7----|
C|-0-0-0---0-0---0-0-0---0-0-0---0-0---0-0-------0-0-0---0-0---0-0-0---0-0-0-0-0-0------------|
G|-0-------0-----0-------0-------0-----0---------0-------0-----0-------0----------------------|
C|-0-------0-----0-------0-------0-----0---------0-------0-----0-------0----------------------|
  .       .     .       .       .     .         .       .     .       .


Riff B - Chorus

D|-----7b8---------7b8r7--5/7\5----------7b8---------7b8r7--5/7\2--2--|
A|-----6b7---------6b7r8--6/8\6----------6b8---------8b9r8--6/8\3--3--|
F|-----7b8---------7b8r7--5/7\5----------7b8---------7b8r7--5/7\2--2--|
C|-0-0-----------0--------0----------0-0-----------0--------0------0--|
G|-0-0-----------0-------------------0-0-----------0------------------|
C|-0-0-----------0-------------------0-0-----------0------------------|
   . .           .                   . .           .              


Riff C
D|--------------------------------------------------------|
A|--------------------------------------------------------|
F|----10\8------8\7-----7-7-7-----10\8------8\7-----7-7-7-|
C|-0--10\8---0--8\7--0--7-7-7--0--10\8---0--8\7--0--7-7-7-|
G|-0---8\6---0--6\5--0--5-5-5--0---8\6---0--6\5--0--5-5-5-|
C|-0---------0-------0---------0---------0-------0--------|
  .        .        .          .         .       .
D|--------------------------------------------------------|
A|--------------------------------------------------------|
F|----10\8------8\7-----7-7-7-----10\8------8\7-----4-4/7-|
C|-0--10\8---0--8\7--0--7-7-7--0--10\8---0--8\7--0--4-4/7-|
G|-0---8\6---0--6\5--0--5-5-5--0---8\6---0--6\5--0--2-2/5-|
C|-0---------0-------0---------0---------0-------0--------|
  .         .       .         .         .       .

Riff D - Fill
D|-------------------------|
A|-------------------------|
F|-------------------------|   Some slight pinch harmonics accentuate this bit nicely.
C|--0------5---5h7p5---5-7-|
G|--0--5h7---7-------7-----|
C|--0----------------------|


Riff E - Bridge
D|---------------------------------------------------------------------|
A|-----------------------------------------------slow bend and release-|
F|---------------------------------------------------------------------|
C|-7-7-7-7-7-7-7-7-7-7-7-7-7-7-7-7-7-7-7-7-7-7-7-7-7b7b7b8b8t8t7t7-----|
G|-5-5-5-5-5-5-5-5-5-5-5-5-5-5-5-5-5-5-5-5-5-5-5-5-5b5b5b6b6r6r5r5-----|
C|-0-0-0-0-0-0-0-0-0-0-0-0-0-0-0-0-0-0-0-0-0-0-0-0-0-0-0-0-0-0-0-0-----|


Riff F - Bridge
D|--------------------------------------------------------------------|
A|--------------------------------------------------------------------|
F|--------------------------------------------------------------------|
C|-7-7-8-8-7-7-7-7-10-10-10-10-7-7-7-7-8-8-8-8-7-7-7-4-4-7-7-7-7b8r7--|
G|-5-5-6-6-5-5-5-5--8--8--8--8-5-5-5-5-6-6-6-6-5-5-5-2-2-5-5-5-5b6r5--|
C|-0-0-0-0-0-0-0-0--0--0--0--0-0-0-0-0-0-0-0-0-0-0-0-0-0-0-0-0-0------|


Riff G - Solo
D|-------------------------------------------------------------|
A|---20b21r20---18b19r18--18b19r18------15-15-15-15-15/17-15---|
F|---19b20r19---17b18r17--17b18r17------14-14-14-14-14/18-14---|
C|-0----------0-----------------------0------------------------|
G|-0----------0-----------------------0------------------------|
C|-0----------0-----------------------0------------------------|
  .           .                       .                     ~
D|-------------------------------------------------------------|
A|---20b21r20---18b19r18--20b21-20b21---19-19-19-19/20\15-15---|
F|---19b20r19---17b18r17--19b20-19b20---17-17-17-17/19\14-14---|
C|-0----------0-----------------------0------------------------|
G|-0----------0-----------------------0------------------------|
C|-0----------0-----------------------0------------------------|
  .           .                       .                     ~


Riff H - Outro
D|---2-3-----2-----2-2-----2-2-----2-----2b3r2-----2-2-----2-----2-2-----5-5-5-5/7\3-3-3------|
A|---3-2-----3-----3-3-----3-3-----3-----3b4r3-----3-3-----3-----3-3-----6-6-6-6/8\2-2-2------|
F|---2-3-----2-----2-2-----2-2-----2-----2b3r2-----2-2-----2-----2-2-----5-5-5-5/7\3-3-3------|
C|-0-0-0---0-0---0-0-0---0-0-0---0-0---0-0-------0-0-0---0-0---0-0-0---0-0-0-0-0-----0-0------|
G|-0-------0-----0-------0-------0-----0---------0-------0-----0-------0----------------------|
C|-0-------0-----0-------0-------0-----0---------0-------0-----0-------0----------------------|
   .       .     .       .       .     .         .       .     .       .


Riff I - Outro
D|---5-5-5-5/7\3-3-3------5-5-5-5/7\3-3-3---|
A|---6-6-6-6/8\2-2-2------6-6-6-6/8\2-2-2---|
F|---5-5-5-5/7\3-3-3------5-5-5-5/7\3-3-3---|
C|-0-0-0-0-0-----0-0----0-0-0-0-0-----0-0---|
G|-0--------------------0-------------------|
C|-0--------------------0-------------------|
   .                    .


Riff J - Outro


D|-----7b8--------------7b8r7--5/7\2-------2---|
A|-----6b8--------------8b9r8--6/8\3------3----|
F|-----7b8--------------7b8r7--5/7\2-----2-----|
C|-0-0----------------0--------0--------0------|
G|-0-0----------------0----------------0-------|
C|-0-0----------------0---------------0--------|
   . .                .                           

 



Song Order:
Riff A x4
Riff B x2
Riff C x1
Riff D x1
Riff A x2
Riff B x2
Riff C x1
Riff E x1
Riff F x2
Riff G x2
Riff A x1
Riff H x1
Riff I x4
Riff J x1


***********************************
| /   Slide up
| \   Slide down
| h   Hammer-on
| p   Pull-off
| ~   Vibrato
| +   Harmonic
| x   Mute note
| b   Bend
| r   Release
************************************





Comments


Popular Cancer Bats tabs & chords
Pneumonia Hawk Bass Tabs
Road Sick Bass Tabs
Butterscotch Tabs
Diamond Mine 1 Tabs
Hail Destroyer Tabs
One Hundred Grand Canyon Intro Tabs
Pneumonia Hawk Tabs
Sabotage Tabs
Sleep This Away Tabs
Smiling Politely Tabs


Song lyrics



↑ Back to top | Tablatures and chords are parodies/interpretations of the original songs. You may use it for private study, scholarship, research or language learning purposes only
© 2014 AZChords.com Contact us | Privacy policy | DMCA | Add/correct tabs | Request tabs | Top 50 tabs