» » »

Cancer Bats, Harem Of Scorpions Bass tabs (ver.1)

Artists:  A B C D E F G H I J K L M N O P Q R S T U V W X Y Z # 

Harem Of Scorpions Bass tabs (ver.1)

Cancer Bats Tabs
 Rating:
4.4/5 (7 votes)
Harem Of Scorpions lessons Tabs too difficult? Try these video lessons and learn fast
1
                Artist - Cancer Bats
Album - Hail Destroyer
Track - Harem Of Scorpions
Tuning - Drop C (CGCF)

Intro
F|---------------------------------|---------------------------------|
C|---------------------------------|---------------------------------|
G|---------------------------------|---------------------------------|
C|---------------------------------|---------------------------------|

F|---------------------------------|---------------------------------|
C|---------------------------------|---------------------------------|
G|---------------------------------|-------------------2-2-2-5-5-2-2-|
C|---------------------------------|---------------------------------|

Verse 1 - All x2
F|---------------------------------|---------------------------------|
C|-------------3-3-3-3-3-3-3-3-3-3-|-------------3-3-3-------3-3-----|
G|-2-2-2-5-5-5---------------------|-2-2-2-5-5-5-------5-5-5-----5-5-|
C|---------------------------------|---------------------------------|

F|---------------------------------|---------------------------------|
C|-------------3-3-3-3-3-3-3-3-3-3-|-3-3-3-------3-3-3---------------|
G|-2-2-2-5-5-5---------------------|-------5-5-5-------2-2-2-5-5-2-2-|
C|---------------------------------|---------------------------------|

Chorus
F|---------------------------------|---------------------------------|
C|---------------------------------|---------------------------------|
G|---------------------------------|---------------------------------|
C|-0-0-0-0-0-0-0-0-0-0-0-0-0-0-0-0-|-5---5---5-5-5-5---5---5---5-5-5-|

F|---------------------------------|---------------------------------|
C|---------------------------------|---------------------------------|
G|---------------------------------|---------------2---2---2---2-2-2-|
C|-0-0-0-0-0-0-0-0-0-0-0-0-0-0-0-0-|-5---5---5-5-5-------------------|

F|---------------------------------|---------------------------------|
C|---------------------------------|---------------------------------|
G|---------------------------------|-2---2---2-2-2-------------------|
C|-0-0-0-0-0-0-0-0-0-0-0-0-0-0-0-0-|---------------2---2---2---2-2-2-|

F|---------------------------------|---------------------------------|
C|---------------------------------|---------------------------------|
G|---------------------------------|---------------------------------|
C|-0-0-0-0-0-0-0-0-0-0-0-0-0-0-0-0-|-2---2---2-2-2-5---5---5---5-5-5-|

Verse 2 - All x2
F|---------------------------------|---------------------------------|
C|-------------3-3-3-3-3-3-3-3-3-3-|-------------3-3-3-------3-3-----|
G|-2-2-2-5-5-5---------------------|-2-2-2-5-5-5-------5-5-5-----5-5-|
C|---------------------------------|---------------------------------|

F|---------------------------------|---------------------------------|
C|-------------3-3-3-3-3-3-3-3-3-3-|-3-3-3-------3-3-3---------------|
G|-2-2-2-5-5-5---------------------|-------5-5-5-------2-2-2-5-5-2-2-|
C|---------------------------------|---------------------------------|


Chorus
F|---------------------------------|---------------------------------|
C|---------------------------------|---------------------------------|
G|---------------------------------|---------------------------------|
C|-0-0-0-0-0-0-0-0-0-0-0-0-0-0-0-0-|-5---5---5-5-5-5---5---5---5-5-5-|

F|---------------------------------|---------------------------------|
C|---------------------------------|---------------------------------|
G|---------------------------------|---------------2---2---2---2-2-2-|
C|-0-0-0-0-0-0-0-0-0-0-0-0-0-0-0-0-|-5---5---5-5-5-------------------|

F|---------------------------------|---------------------------------|
C|---------------------------------|---------------------------------|
G|---------------------------------|-2---2---2-2-2-------------------|
C|-0-0-0-0-0-0-0-0-0-0-0-0-0-0-0-0-|---------------2---2---2---2-2-2-|

F|---------------------------------|---------------------------------|
C|---------------------------------|---------------------------------|
G|---------------------------------|---------------------------------|
C|-0-0-0-0-0-0-0-0-0-0-0-0-0-0-0-0-|-2---2---2-2-2-5---5---5---5-5-5-|

Bridge
F|---------------------------------|---------------------------------|
C|---------------------------------|---------------------------------|
G|-------------------------2---3---|---------------------------------|
C|-5-5-5-5-5-5-5-5-5-5-5-5---------|-2-2-2-2-2-2-2-2-2-2-2-2-2-2-2-2-| x4

F|---------------------------------|---------------------------------|
C|---------------------------------|---------------------------------|
G|---------------------------------|---------------------------------|
C|-5-------------------------------|-2-------------------------------| x2

F|---------------------------------|---------------------------------|
C|---------------------------------|---------------------------------|
G|---------------------------------|---------------------------------|
C|-5-5-5-5-5-5-5-5-5-5-5-5-5-5-5-5-|-2-2-2-2-2-2-2-2-2-2-2-2-2-2-2-2-| x2

F|---------------------------------|---------------------------------|
C|---------------------------------|---------------------------------|
G|---------------------------------|---------------------------------|
C|---------------------------------|---------------------------------|

F|---------------------------------|---------------------------------|
C|---------------------------------|---------------------------------|
G|---------------------------------|-------------------2-2-2-5-5-2-2-|
C|---------------------------------|---------------------------------|


Verse 3 - All x2
F|---------------------------------|---------------------------------|
C|-------------3-3-3-3-3-3-3-3-3-3-|-------------3-3-3-------3-3-----|
G|-2-2-2-5-5-5---------------------|-2-2-2-5-5-5-------5-5-5-----5-5-|
C|---------------------------------|---------------------------------|

F|---------------------------------|---------------------------------|
C|-------------3-3-3-3-3-3-3-3-3-3-|-3-3-3-------3-3-3---------------|
G|-2-2-2-5-5-5---------------------|-------5-5-5-------2-2-2-5-5-2-2-|
C|---------------------------------|---------------------------------|

End

F|---------------------------------|
C|---------------------------------|
G|---------------------------------|
C|-0-------------------------------|
            
Submit corrections

comments powered by Disqus
↑ Back to top | Cancer Bats Bass for Harem Of Scorpions. Lyrics for acoustic guitar and electric guitar. 1 Tablatures and chords are parodies/interpretations of the original songs. You may use it for private study, scholarship, research or language learning purposes only