>
 >
Hail Destroyer

Hail Destroyer Bass Tabs

Cancer Bats - Hail Destroyer chords, tabs, tablatures, lyrics

Guitar lessons | Add/correct | Request | Top 50 tabs Artists:  A B C D E F G H I J K L M N O P Q R S T U V W X Y Z 0-9

Hail Destroyer Bass Tabs – Cancer Bats

CD, Sheet music, Poster

Do you like Hail Destroyer? Share with your friends now
Bass TabsTabs
Hail Destroyer  Cancer Bats
Intro Pt 1
C|-6~~~-----------------------------|

F|------------------------------------|
C|------------------------------------|
G|------------------------------------|
C|-03/6--0-7/6-0-6-0-66-0-66-0-6-----| x3

Intro Pt 2
F|------------------------------|
C|------------------------------|
G|------------------------------|
C|-0-3/6--0-7/6-66666666--------| x1

Verse
F|----------------------------------------------|
C|----------------------------------------------|
G|----------------------------------------------|
C|-1111111111110-7/6-6666666--0-7/6-6666666----|

F|---------------------------------------|
C|---------------------------------------|
G|---------------------------------------|
C|-111111111111-0-3/6-0-7/6--66666666----|

F|--------------------------------------|
C|--------------------------------------|
G|--------------------------------------|
C|-111111111111-666-77777-999-77777-----| x2

Chorus
F|------------------------------|
C|------------------------------|
G|------------------------------|
C|-1-6-1-6--0-6-6/77777---------|

F|------------------------------|
C|------------------------------|
G|------------------------------|
C|-1-6-1-6-0-9-9-77777----------|

F|------------------------------------------|
C|------------------------------------------|
G|------------------------------------------|
C|-1-6-1-6-0-6-6/77777-99999999-77777777----|

Intro Pt 1 x2, Intro Pt 2 x1
Verse
Chorus

Breakdown
F|------------------------------------------|
C|------------------------------------------|
G|---------36-69---------69-912-------------|
C|-0-0-0-0-------0-0-0-0--------------------|

F|---------------------------------------|
C|---------7/10/4-4/7/1-----------------|
G|---------------------------------------|
C|-0-0-0-0-------------------------------|

F|-------------------------------------|
C|-------------------------------------|
G|---------363--36---------------------|
C|-0-0-0-0-----------------------------|

F|--------------------------------------------|
C|--------------------------------------------|
G|-------3/6-6---6/9-9---9/12-----------------|
C|-0-0-0-------0-------0----------------------|

F|--------------------------------------------|
C|-------7/4-4---4/7/1---1/4------------------|
G|---------------------------3--3--3----------|
C|-0-0-0-------0-------0----------------------|

F|--------------------------------------------|
C|--------------------------------------------|
G|-------3/6-6---6/9-9---9/12-----------------|
C|-0-0-0-------0-------0----------------------|

F|--------------------------------------------|
C|--------------------------------------------|
G|-------3/6-6---6/9-9---9/12-----------------|
C|-0-0-0-------0-------0----------------------|

F|--------------------------------------------|
C|-------7/4-4---4/7/1---1/4------------------|
G|---------------------------3--3--3----------|
C|-0-0-0-------0-------0----------------------|

F|--------------------------------------------|
C|--------------------------------------------|
G|-------3/6-6---6/9-9---9/12-----------------|
C|-0-0-0-------0-------0----------------------|

F|--------------------------------------------|
C|-------7/4-4---4/7-7---7/13-----------------|
G|--------------------------------------------|
C|-0-0-0-------0-------0----------------------|

F|------------------------------|
C|------------------------------|
G|-----------------------5/12/0-|
C|------------------------------|

Chorus

Outro
F|------------------------------|
C|------------------------------|
G|------------------------------|
C|-0-3/6-0-7/6-6-6--------------|


Notes:

1. The 111111111111 in the verse is 12 1s, not 6 11s. I'm not entirely sure if that many 
required but it sounded right when i played it

2.A lot of this song is following the guitar so if there's a part you arent sure of, use 
guitar line to get the timing right

3. I'm not entirely sure if the very first note (6 held on the bottom C string) is 
You can also try 7 or 9 and see which one suits it better

4. On the chorus, the 1-6-1-6 part can be played like that or by sliding. It tends to be 
you feel is easiest. Playing the 1 and 6 as seperate notes is harder but can be done if 
right





Comments


Popular Cancer Bats tabs & chords
Sabotage 1 Bass Tabs
Smiling Politely Bass Tabs
100 Grand Canyon Tabs
100 Grand Canyon Intro Tabs
Breathe Armageddon Tabs
Deathsmarch Tabs
Harem Of Scorpions Tabs
Lucifer's Rocking Chair Tabs
Road Sick Tabs
Shillelagh Tabs


Song lyrics



↑ Back to top | Tablatures and chords are parodies/interpretations of the original songs. You may use it for private study, scholarship, research or language learning purposes only
© 2014 AZChords.com Contact us | Privacy policy | DMCA | Add/correct tabs | Request tabs | Top 50 tabs