» » »

Golden Tanks Breakdown Thing Tabs (ver.1)

Artists:  A B C D E F G H I J K L M N O P Q R S T U V W X Y Z # 

Golden Tanks Breakdown Thing Tabs (ver.1)

Cancer Bats
Rating:
5/5 (2 votes)

Hard to play? Try these video lessons and learn fast.
                So this is like the breakdown thing. Pretty sweet riff i'd say.

-----------------------------------------------------------------
Cancer Bats - 01 Golden Tanks
-----------------------------------------------------------------

Tuning: drop C or D whichever you wanna jam in...

e|---------------------------------------------------------------|
B|---------------------------------------------------------------|
G|---------------------------------------------------------------|
D|------------------------------------3^---------3~--------------|
A|--------------------3~------------3----5-0-3-5-----------------|
E|-0-0-3h5----0-0-3h5-------0-0-3h5------------------------------|

continued..
e|---------------------------------------------------------------|
B|---------------------------------------------------------------|
G|---------------------------------------------------------------|
D|---------------------------------------------------------------|
A|--------------------3h5p3--------------------------------------|
E|-0-0-3-5----0-0-3-5-------5p0-3~-3-0-3h5p3---------------------|


its repeated a few times and then does some other sweet thing at the end before going 
the song but im too lazy to figure it out.

not sure if its 100% right but sounds good and close the way i play it!!


| /  slide up
| \  slide down
| h  hammer-on
| p  pull-off
| ~  vibrato
| +  harmonic
| x  Mute note
            
Hard to play? Try these video lessons and learn fast. | Correct




comments powered by Disqus
↑ Back to top | Tablatures and chords are parodies/interpretations of the original songs. You may use it for private study, scholarship, research or language learning purposes only