» » »

Cancer Bats, Diamond Mine Tabs (ver.2)

Artists:  A B C D E F G H I J K L M N O P Q R S T U V W X Y Z # 

Diamond Mine Tabs (ver.2)

Cancer Bats Tabs
 Rating:
4/5 (4 votes)
Diamond Mine lessons Tabs too difficult? Try these video lessons and learn fast
                Cancer Bats
Diamond Mine
Tuning:Drop C (whole step down and dropped D)

This is my first tab so go easy on me! I'm not 100% sure about the intro/verse part1
but it still sounds right. I made some changes to the chorus and verse. Awesome band, 
ENJOY! Updated the intro and verse. Thanks to SeventyXseven for the corrections.

Legend:
PM=palm mute
<>=pinch harmonic
 b=bend
 ^=cut
 /=slide
 ~=let ring                   12's 13's 14's and 15's
                                       V
Intro x1
|------------------------------------------------------|
|------------------------------------------------------|
|-15~-1515151514~-1414141415~-151515151414141414141414-|
|-x---x-x-x-x-x---x-x-x-x-x---x-x-x-x-x-x-x-x-x-x-x-x--|
|-13~-1313131312~-1212121213~-131313131212121212121212-|
|------------------------------------------------------|

Verse part 1 x2
|-------------------------------------------------------------------|
|-------------------------------------------------------------------|
|-15-15^-151515^-151515^-15151515^-14-14^-141414^-141414^-14141414^-|
|-x--x--x-x-x---x-x-x----x-x-x-x---x--x---x-x-x---x-x-x---x-x-x-x---|
|-13-13^-131313^-131313^-13131313^-12-12^-121212^-121212^-12121212^-|
|-------------------------------------------------------------------|

Verse part 2 (After 2nd time)
|-/--------------------------------------------------------------------|
|-/--------------------------------------------------------------------|
|-/--------------------------------------------------------------------|
|-/--------------------------------------------------------------------|
|-/--------------------------------------------------------------------|
|-/0000000000035737-0000000000035737-0000000000035737-0000000000035737-|
PM                                                              ______

Verse Part 3 x2
|-----------------------------------------|
|-----------------------------------------|
|-----------------------------------------|
|-3-3-333^-333^-3333^-2-2-222^-222^-2222^-|
|-1-1-111^-111^-1111^-0-0-000^-000^-0000^-|
|-----------------------------------------|

Repeat verse part1 x2

Verse part 4 (After 2nd time)
|--------|
|--------|
|--------|
|--------|
|--------|
|-035730-|
PM______

Chorus x4
|----------------------------|
|----------------------------|
|----------------------------|
|-33-3^3^3^3^-33333-3~--/7~--|
|-11-1^1^1^1^-11111-3~--/7~--|
|-------------------3~--/7~--|

Pre-Verse x1
|----------------------------------------------------------------------|
|----------------------------------------------------------------------|
|----------------------------------------------------------------------|
|----------------------------------------------------------------------|
|----------------------------------------------------------------------|
|-0000000000035730-0000000000035730-00000000000035730-0000000000035730-|
PM                                                              ______

Repeat verse part 3 x2

Repeat verse part 1 x2

Repeat verse part 4 x1

Repeat chorus x4

Bridge
|-------------------------------------------------------|
|-------------------------------------------------------|
|-------------------------------------------------------|
|-------------------------------------------------------|
|-------------------------------------------------------|
|-00000000000000000000035730-00000000000000000000035730-|
PM                                               ______

Repeat intro x1

Repeat verse part 1 x2

(Again, not 100% sure but this sounds right. Anyway...)
                 V
Solo
|------------------------------------------|
|------------------12b(x8)---------16b(x8)-|
|-9b(x8)--10b(x8)-----------9b(x8)---------|
|------------------------------------------|
|------------------------------------------|
|------------------------------------------|
(listen to the song for timing)

Repeat verse part 1 x2

Repeat chorus x4

Outro           x3                               x3
|-----------------|--------------------------------|-------------|
|-----------------|--------------------------------|-------------|
|-----------------|--------------------------------|-------------|
|-55-33-4401-3-40-|-<5><5>-<3><3>--------4401-3-40-|-1-0~--------|
|-33-11-4401-3-40-|----------------------4401-3-40-|-1-0~--------|
|-------4401-3-40-|---------------<3>-<1>4401-3-40-|-1-0~--------|

Please rate!
            
Submit corrections

comments powered by Disqus
↑ Back to top | Cancer Bats Tabs for Diamond Mine. Lyrics for acoustic guitar and electric guitar. Tablatures and chords are parodies/interpretations of the original songs. You may use it for private study, scholarship, research or language learning purposes only