>
 >
Diamond Mine

Diamond Mine Guitar Tabs

Cancer Bats - Diamond Mine chords, tabs, tablatures, lyrics

Guitar lessons | Add/correct | Request | Top 50 tabs Artists:  A B C D E F G H I J K L M N O P Q R S T U V W X Y Z 0-9

Diamond Mine Guitar Tabs – Cancer Bats

CD, Sheet music, Poster

Do you like Diamond Mine? Share with your friends now
TabsTabs v2
Cancer Bats
Tuning:Drop C (whole step down and dropped D)

This is my first tab so go easy on me! I'm not 100% sure about the intro/verse part1 
but it still sounds right. Awesome band, awesome song, ENJOY!

Legend:
PM=palm mute
<>=pinch harmonic
 b=bend
 ^=cut
 /=slide
 ~=let ring                   10's 11's 12's and 13's
                                       V
Intro x1
D----------------------------------------------------------------------|
A----------------------------------------------------------------------|
F----------------------------------------------------------------------|
C-13~-1313131312~-1212121213~-1313131312121212121212121212121212121212-|
B-11~-1111111110~-1010101011~-1111111110101010101010101010101010101010-|
C----------------------------------------------------------------------|

Verse part 1 x2
D-----------------------------------------------------------------|
A-----------------------------------------------------------------|
F-----------------------------------------------------------------|
C-13-13-131313^-131313^-13131313^-12-12-121212^-121212^-12121212^-|
B-11-11-111111^-111111^-11111111^-10-10-101010^-101010^-10101010^-|
C-----------------------------------------------------------------|

Verse part 2 (After 2nd time)
D-/--------------------------------------------------------------------|
A-/--------------------------------------------------------------------|
F-/--------------------------------------------------------------------|
C-/--------------------------------------------------------------------|
B-/--------------------------------------------------------------------|
C-/0000000000035737-0000000000035737-0000000000035737-0000000000035737-|
PM                                                              ______

Verse Part 3 x2
D-----------------------------------------|
A-----------------------------------------|
F-----------------------------------------|
C-3-3-333^-333^-3333^-2-2-222^-222^-2222^-|
B-1-1-111^-111^-1111^-0-0-000^-000^-0000^-|
C-----------------------------------------|

Repeat verse part1 x2

Verse part 4 (After 2nd time)
D--------|
A--------|
F--------|
C--------|
B--------|
C-035737-|
PM______

Chorus x4
D----------------------------|
A----------------------------|
F----------------------------|
C-33-3^3^3^3^-33333-3~--/8~--|
B-11-1^1^1^1^-11111-3~--/8~--|
C-------------------3~--/8~--|

Pre-Verse x1
D----------------------------------------------------------------------|
A----------------------------------------------------------------------|
F----------------------------------------------------------------------|
C----------------------------------------------------------------------|
B----------------------------------------------------------------------|
C-0000000000035737-0000000000035737-00000000000035737-0000000000035737-|
PM                                                              ______

Repeat verse part 3 x2

Repeat verse part 1 x2

Repeat verse part 4 x1

Repeat chorus x4

Bridge
D-------------------------------------------------------|
A-------------------------------------------------------|
F-------------------------------------------------------|
C-------------------------------------------------------|
B-------------------------------------------------------|
C-00000000000000000000035737-00000000000000000000035737-|
PM                                               ______

Repeat intro x1

Repeat verse part 1 x2

(Again, not 100% sure but this sounds right. Also he's got an effect on, maybe reverb. Anyway...)
                 V
Solo
D---------------------------|
A-----------------12b---16b-|
F-9b---10b---9b-------------|
C---------------------------|
B---------------------------|
C---------------------------|
(listen to the song for timing)

Repeat verse part 1 x2

Repeat chorus x4

Outro          x2                       x2
D----------------|------------------------|-------------|
A----------------|------------------------|-------------|
F----------------|------------------------|-------------|
C-55-33-44013400-|-<5><5>-<3><3>-44013400-|-1-0~--------|
B-33-11-44013400-|---------------44013400-|-1-0~--------|
C-------44013400-|---------------44013400-|-1-0~--------|

Please rate!





Comments


Popular Cancer Bats tabs & chords
Hail Destroyer Bass Tabs
Sabotage 2 Bass Tabs
Smiling Politely Bass Tabs
Breathe Armageddon Tabs
Butterscotch Tabs
Death Bros Tabs
Harem Of Scorpions Tabs
Lucifer's Rocking Chair 1 Tabs
Raised Right Tabs
Smiling Politely Tabs


Song lyrics



↑ Back to top | Tablatures and chords are parodies/interpretations of the original songs. You may use it for private study, scholarship, research or language learning purposes only
© 2014 AZChords.com Contact us | Privacy policy | DMCA | Add/correct tabs | Request tabs | Top 50 tabs