>
 >
Death Bros

Death Bros Guitar Tabs

Cancer Bats - Death Bros chords, tabs, tablatures, lyrics

Guitar lessons | Add/correct | Request | Top 50 tabs Artists:  A B C D E F G H I J K L M N O P Q R S T U V W X Y Z 0-9

Death Bros Guitar Tabs – Cancer Bats

CD, Sheet music, Poster

Do you like Death Bros? Share with your friends now
Tabs
-----------------------------------------------------------------------------
-------------------------------------------------------------------------------

Tuning: Drop C - CGCFAD

D|--------------------------------------------------------------------------------|
A|--6-6-6-6------6-6-6-6------5-5-5-5------3-3-0-3b4r3----------------------------|
F|--5-5-5-5------5-5-5-5------4-4-4-4------2-2-0-2b3r2----------------------------|x3
C|--0-0-0-0-0-0--0-0-0-0-0-0--0-0-0-0-0-0--0-0-0-0-+-0-0--------------------------|
G|-(0)------0-0----------0-0----------0-0--------------0--------------------------|
C|-(0)------0-0----------0-0----------0-0--------------0--------------------------|

D|--------------------------------------------------------------------------------|
A|--6-6-6-6------6-6-6-6------5-5-5-5------3-3-0-3b4r3-3-----3-3-0-3b4r3----------|
F|--5-5-5-5------5-5-5-5------4-4-4-4------2-2-0-2b3r2-2-----2-2-0-2b2r2----------|
C|--0-0-0-0-0-0--0-0-0-0-0-0--0-0-0-0-0-0--0-0-0-0-+-0-0-----0-0-0-0-+-0-0--------|
G|----------0-0----------0-0----------0-0--------------0-----------------0--------|
C|----------0-0----------0-0----------0-0--------------0-----------------0--------|

D|--------------------------------------------------------------------------------|
A|--6-6-6-6------6-6-6-6------5-5-5-5------3-3-0-3b4r3----------------------------|
F|--5-5-5-5------5-5-5-5------4-4-4-4------2-2-0-2b3r2----------------------------|x3
C|--0-0-0-0-0-0--0-0-0-0-0-0--0-0-0-0-0-0--0-0-0-0-+-0-0--------------------------|
G|-(0)------0-0----------0-0----------0-0--------------0--------------------------|
C|-(0)------0-0----------0-0----------0-0--------------0--------------------------|

D|--------------------------------------------------------------------------------|
A|--6-6-6-6------6-6-6-6------5-5-5-5------3-3-0-3b4r3----------------------------|
F|--5-5-5-5------5-5-5-5------4-4-4-4------2-2-0-2b3r2----------------------------|
C|--0-0-0-0-0-0--0-0-0-0-0-0--0-0-0-0-0-0--0-0-0-0-+-0----------------------------|
G|----------0-0----------0-0----------0-0-----------------------------------------|
C|----------0-0----------0-0----------0-0-----------------------------------------|

D|--------------------------------------------------------------------------------|
A|--------------------------------------------------------------------------------|
F|--------------------------------------------------------------------------------|
C|-3--3-3-3-3-3-3-3-3-3--0-3-5-1--1-1-1-1-1-1-1-1-1--0-6-6-6----------------------|
G|-3--3-3-3-3-3-3-3-3-3--0-3-5-1--1-1-1-1-1-1-1-1-1--0-6-6-6----------------------|
C|-3--3-3-3-3-3-3-3-3-3--0-3-5-1--1-1-1-1-1-1-1-1-1--0-6-6-6----------------------|
      = = = = = = = = =           = = = = = = = = =  
D|--------------------------------------------------------------------------------|
A|-----3----------3-------------6-6-6-6-6--4-4-4-4---9-9-9------3----------3------|
F|-----2----------2-------------5-5-5-5-5--3-3-3-3---8-8-8------2----------2------|
C|-3-0-0--3-0-3-0-0--3-0-3--3-3-3-3-3-3-3--1-1-1-1-0-7-7-7--3-0-0--3-0-3-0-0--3-0-|
G|-3-0----3-0-3-0----3-0-3--3-3-3-3-3-3-3--1-1-1-1-0-7-7-7--3-0----3-0-3-0----3-0-|
C|-3-0----3-0-3-0----3-0-3--3-3-3-3-3-3-3--1-1-1-1-0-7-7-7--3-0----3-0-3-0----3-0-|

D|--------------------------------------------------------------------------------|
A|-----6-6-6-6-6--4-4-4-4---6-6-6-3-----3-3-0-3b4r3-------------------------------|
F|-----5-5-5-5-5--3-3-3-3---5-5-5-2-----2-2-0-2b3r2-------------------------------|
C|-3-3-3-3-3-3-3--1-1-1-1-0-0-0-0-0-----0-0-0-0-+-0-0-----------------------------|
G|-3-3-3-3-3-3-3--1-1-1-1-0-0-0-0-0-----------------0-----------------------------|
C|-3-3-3-3-3-3-3--1-1-1-1-0-0-0-0-0-----------------0-----------------------------|

D|--------------------------------------------------------------------------------|
A|--6-6-6-6------6-6-6-6------5-5-5-5------3-3-0-3b4r3----------------------------|
F|--5-5-5-5------5-5-5-5------4-4-4-4------2-2-0-2b3r2----------------------------|x3
C|--0-0-0-0-0-0--0-0-0-0-0-0--0-0-0-0-0-0--0-0-0-0-+-0-0--------------------------|
G|-(0)------0-0----------0-0----------0-0--------------0--------------------------|
C|-(0)------0-0----------0-0----------0-0--------------0--------------------------|

D|--------------------------------------------------------------------------------|
A|--6-6-6-6------6-6-6-6------5-5-5-5------3-3-0-3b4r3----------------------------|
F|--5-5-5-5------5-5-5-5------4-4-4-4------2-2-0-2b3r2----------------------------|
C|--0-0-0-0-0-0--0-0-0-0-0-0--0-0-0-0-0-0--0-0-0-0-+-0----------------------------|
G|----------0-0----------0-0----------0-0-----------------------------------------|
C|----------0-0----------0-0----------0-0-----------------------------------------|

D|--------------------------------------------------------------------------------|
A|--------------------------------------------------------------------------------|
F|--------------------------------------------------------------------------------|
C|-3--3-3-3-3-3-3-3-3-3--0-3-5-1--1-1-1-1-1-1-1-1-1--0-6-6-6----------------------|
G|-3--3-3-3-3-3-3-3-3-3--0-3-5-1--1-1-1-1-1-1-1-1-1--0-6-6-6----------------------|
C|-3--3-3-3-3-3-3-3-3-3--0-3-5-1--1-1-1-1-1-1-1-1-1--0-6-6-6----------------------|
      = = = = = = = = =           = = = = = = = = =  
D|--------------------------------------------------------------------------------|
A|-----3----------3-------------6-6-6-6-6--4-4-4-4---9-9-9------3----------3------|
F|-----2----------2-------------5-5-5-5-5--3-3-3-3---8-8-8------2----------2------|
C|-3-0-0--3-0-3-0-0--3-0-3--3-3-3-3-3-3-3--1-1-1-1-0-7-7-7--3-0-0--3-0-3-0-0--3-0-|
G|-3-0----3-0-3-0----3-0-3--3-3-3-3-3-3-3--1-1-1-1-0-7-7-7--3-0----3-0-3-0----3-0-|
C|-3-0----3-0-3-0----3-0-3--3-3-3-3-3-3-3--1-1-1-1-0-7-7-7--3-0----3-0-3-0----3-0-|

D|--------------------------------------------------------------------------------|
A|-----6-6-4-4-4-4-----9-9-9-9-7-7-7----------------------------------------------|
F|-----5-5-3-3-3-3-----8-8-8-8-6-6-6----------------------------------------------|
C|-3-3-3-3-1-1-1-1--0--7-7-7-7-5-5-5----------------------------------------------|
G|-3-3-3-3-1-1-1-1--0--7-7-7-7-5-5-5----------------------------------------------|
C|-3-3-3-3-1-1-1-1--0--7-7-7-7-5-5-5----------------------------------------------|

D|--------------------------------------------------------------------------------|
A|--------------------------------------------------------------------------------|
F|--------------------------------------------------------------------------------|
C|-3--3-3-3-3-3-3-3-3-3--0-3-5-1--1-1-1-1-1-1-1-1-1--0-6-6-6----------------------|
G|-3--3-3-3-3-3-3-3-3-3--0-3-5-1--1-1-1-1-1-1-1-1-1--0-6-6-6----------------------|
C|-3--3-3-3-3-3-3-3-3-3--0-3-5-1--1-1-1-1-1-1-1-1-1--0-6-6-6----------------------|
      = = = = = = = = =           = = = = = = = = =
D|--------------------------------------------------------------------------------|
A|--------------------------------------------------------------------------------|
F|--------------------------------------------------------------------------------|x2
C|-9-9-3-9-3-9-3--3-3--9-9-3-9-3-9-3--0-3-5-5--9-9-3-9-3-9-3--3-3--9-9-3-9-3-3----|
G|-9-9-3-9-3-9-3--3-3--9-9-3-9-3-9-3--0-3-5-5--9-9-3-9-3-9-3--3-3--9-9-3-9-3-3----|
C|-9-9-3-9-3-9-3--3-3--9-9-3-9-3-9-3--0-3-5-5--9-9-3-9-3-9-3--3-3--9-9-3-9-3-3----|

D|--------------------------------------------------------------------------------|
A|--------------------------------------------------------------------------------|
F|--------------------------------------------------------------------------------|
C|--------------------------------------------------------------------------------|
G|--------------------------------------------------------------------------------|
C|-3-3-0-3-3-0-3-3-0-3-0-5-5---3-3-0-3-3-0-3-3-0-3-0-3-0--------------------------|

D|--------------------------------------------------------------------------------|
A|--------------------------------------------------------------------------------|
F|--------------------------------------------------------------------------------|
C|--------------------------------------------------------------------------------|
G|--------------------------------------------------------------------------------|
C|-3-3-0-3-3-0-3-3-0-3-0-5-5---3-3-0-3-3-0-3-3------------------------------------|

D|--------------------------------------------------------------------------------|
A|--------------------------------------------------------------------------------|
F|--------------------------------------------------------------------------------|
C|-3-3-0-3-3-0-3-3-0-3-0-5-5---3-3-0-3-3-0-3-3-0-3-0-3-0--------------------------|
G|-3-3-0-3-3-0-3-3-0-3-0-5-5---3-3-0-3-3-0-3-3-0-3-0-3-0--------------------------|
C|-3-3-0-3-3-0-3-3-0-3-0-5-5---3-3-0-3-3-0-3-3-0-3-0-3-0--------------------------|

D|--------------------------------------------------------------------------------|
A|--------------------------------------------------------------------------------|
F|--------------------------------------------------------------------------------|
C|-3-3-0-3-3-0-3-3-0-3-0-5-5---3-3-0-3-3-0-3-3-0-3-0-5\3--------------------------|
G|-3-3-0-3-3-0-3-3-0-3-0-5-5---3-3-0-3-3-0-3-3-0-3-0-5\3--------------------------|
C|-3-3-0-3-3-0-3-3-0-3-0-5-5---3-3-0-3-3-0-3-3-0-3-0-5\3--------------------------|

D|--------------------------------------------------------------------------------||
A|-----3----------3-------------6-6-6-6-6--4-4-4-4---9-9-9------3----------3------||
F|-----2----------2-------------5-5-5-5-5--3-3-3-3---8-8-8------2----------2------||
C|-3-0-0--3-0-3-0-0--3-0-3--3-3-3-3-3-3-3--1-1-1-1-0-7-7-7--3-0-0--3-0-3-0-0--3-0-||
G|-3-0----3-0-3-0----3-0-3--3-3-3-3-3-3-3--1-1-1-1-0-7-7-7--3-0----3-0-3-0----3-0-||
C|-3-0----3-0-3-0----3-0-3--3-3-3-3-3-3-3--1-1-1-1-0-7-7-7--3-0----3-0-3-0----3-0-||
                                                                                   |x2
D|--------------------------------------------------------------------------------||
A|-----6-6-4-4-4-4-----9-9-9-9-7-7-7----------------------------------------------||
F|-----5-5-3-3-3-3-----8-8-8-8-6-6-6----------------------------------------------||
C|-3-3-3-3-1-1-1-1--0--7-7-7-7-5-5-5----------------------------------------------||
G|-3-3-3-3-1-1-1-1--0--7-7-7-7-5-5-5----------------------------------------------||
C|-3-3-3-3-1-1-1-1--0--7-7-7-7-5-5-5----------------------------------------------||

D|--------------------------------------------------------------------------------|
A|--------------------------------------------------------------------------------|
F|--------------------------------------------------------------------------------|x2
C|-3-3-3-3--0-1--1-1-1---0-6-6-6-6-6--5-3--3-3-3-3-3--0---------------------------|
G|-3-3-3-3--0-1--1-1-1---0-6-6-6-6-6--5-3--3-3-3-3-3--0---------------------------|
C|-3-3-3-3--0-1--1-1-1---0-6-6-6-6-6--5-3--3-3-3-3-3--0---------------------------|
     = = =       = = =                     = = = = =
D|--------------------------------------------------------------------------------|
A|--------------------------------------------------------------------------------|
F|--------------------------------------------------------------------------------|x2
C|-3-3-3-3--0-1--1-1-1---0-6-6-6-6-6--5-3--3-3-3-3-3--0---------------------------|
G|-3-3-3-3--0-1--1-1-1---0-6-6-6-6-6--5-3--3-3-3-3-3--0---------------------------|
C|-3-3-3-3--0-1--1-1-1---0-6-6-6-6-6--5-3--3-3-3-3-3--0---------------------------|

D|--------------------------------------------------------------------------------||
A|--------------------------------------------------------------------------------||
F|--------------------------------------------------------------------------------||
C|-8-6-5-6--5-0-3-5--0-1-3-5-3-3--0-1-1-1--0-1-1--0-3-3-3--0-3-3--0---------------||
G|-8-6-5-6--5-0-3-5--0-1-3-5-3-3--0-1-1-1--0-1-1--0-3-3-3--0-3-3--0---------------||
C|-8-6-5-6--5-0-3-5--0-1-3-5-3-3--0-1-1-1--0-1-1--0-3-3-3--0-3-3--0---------------||
                                      = =             = =                          |x2
D|--------------------------------------------------------------------------------||
A|--------------------------------------------------------------------------------||
F|--------------------------------------------------------------------------------||
C|-6-6-6-8-5--5-0--5-6-5-0-3-5--0-1-1-1--0-3-5--3-3-3-0-3-0-----------------------||
G|-6-6-6-8-5--5-0--5-6-5-0-3-5--0-1-1-1--0-3-5--3-3-3-0-3-0-----------------------||
C|-6-6-6-8-5--5-0--5-6-5-0-3-5--0-1-1-1--0-3-5--3-3-3-0-3-0-----------------------||
                                    = =              
D|--------------------------------------------------------------------------------|
A|-----3----------3-------------6-6-6-6-6--4-4-4-4---9-9-9------3----------3------|
F|-----2----------2-------------5-5-5-5-5--3-3-3-3---8-8-8------2----------2------|
C|-3-0-0--3-0-3-0-0--3-0-3--3-3-3-3-3-3-3--1-1-1-1-0-7-7-7--3-0-0--3-0-3-0-0--3-0-|
G|-3-0----3-0-3-0----3-0-3--3-3-3-3-3-3-3--1-1-1-1-0-7-7-7--3-0----3-0-3-0----3-0-|
C|-3-0----3-0-3-0----3-0-3--3-3-3-3-3-3-3--1-1-1-1-0-7-7-7--3-0----3-0-3-0----3-0-|
                                                                                    
D|--------------------------------------------------------------------------------|
A|-----6-6-4-4-4-4-----9-9-9-9-7-7-7----------------------------------------------|
F|-----5-5-3-3-3-3-----8-8-8-8-6-6-6----------------------------------------------|
C|-3-3-3-3-1-1-1-1--0--7-7-7-7-5-5-5----------------------------------------------|
G|-3-3-3-3-1-1-1-1--0--7-7-7-7-5-5-5----------------------------------------------|
C|-3-3-3-3-1-1-1-1--0--7-7-7-7-5-5-5----------------------------------------------|

D|--------------------------------------------------------------------------------|
A|-----3----------3-------------6-6-6-6-6--4-4-4-4---9-9-9------3----------3------|
F|-----2----------2-------------5-5-5-5-5--3-3-3-3---8-8-8------2----------2------|
C|-3-0-0--3-0-3-0-0--3-0-3--3-3-3-3-3-3-3--1-1-1-1-0-7-7-7--3-0-0--3-0-3-0-0--3-0-|
G|-3-0----3-0-3-0----3-0-3--3-3-3-3-3-3-3--1-1-1-1-0-7-7-7--3-0----3-0-3-0----3-0-|
C|-3-0----3-0-3-0----3-0-3--3-3-3-3-3-3-3--1-1-1-1-0-7-7-7--3-0----3-0-3-0----3-0-|

D|--------------------------------------------------------------------------------|
A|--------------------------------------------------------------------------------|
F|--------------------------------------------------------------------------------|
C|-6-6-6-8-5--5-0--5-6-5-0-3-5--0-1-1-1--0-3-5--3-3-3-3-3-3-3-3-------------------|
G|-6-6-6-8-5--5-0--5-6-5-0-3-5--0-1-1-1--0-3-5--3-3-3-3-3-3-3-3-------------------|
C|-6-6-6-8-5--5-0--5-6-5-0-3-5--0-1-1-1--0-3-5--3-3-3-3-3-3-3-3-------------------|
                                    = =           = = = = = =  







| =  palm mute
| r  return
| b  bend
| /  slide up
| \  slide down
| h  hammer-on
| p  pull-off
| ~  vibrato
| +  harmonic
| x  Mute note
===============================================================================





Comments


Popular Cancer Bats tabs & chords
Smiling Politely Bass Tabs
100 Grand Canyon Intro 1 Tabs
Diamond Mine Tabs
French Immersion 1 Tabs
Hail Destroyer Tabs
Lucifer's Rocking Chair 1 Tabs
Pray For Darkness Tabs
Sabotage Tabs
Shillelagh Tabs
Sleep This Away Tabs


Song lyrics



↑ Back to top | Tablatures and chords are parodies/interpretations of the original songs. You may use it for private study, scholarship, research or language learning purposes only
© 2014 AZChords.com Contact us | Privacy policy | DMCA | Add/correct tabs | Request tabs | Top 50 tabs