» » »

Cancer Bats, Dead Wrong Tabs (ver.1)

Artists:  A B C D E F G H I J K L M N O P Q R S T U V W X Y Z # 

Dead Wrong Tabs (ver.1)

Cancer Bats Tabs
Rating:
0/5 (0 votes)
Dead Wrong lessons Tabs too difficult? Try these video lessons and learn fast
                intro:

D|-------------------------------|
A|-------------------------------|
F|-------------------------------| x4
C|-------------------------6---3-|
G|--9\0--8\0--9\0--8\0-----------|
C|--9\0--8\0--9\0--8\0-----------|


D|--------------------------------|
A|--------------------------------|
F|--------------------------------| x1
C|--------------------------------|
G|--------------------------------|
C|--9--9--6--9--9--9--5--4--6--3--|


verse 1

D|-----------------------|
A|-----------------------|
F|-----------------------|
C|-----------------------| x2
G|-----9-----9-----6-----|
C|-----9-----9-----6-----|

D|------------------------------|
A|------------------------------|
F|------------------------------| x2
C|---------12-------------9-----|
G|-----9------------6-----------|
C|-----9------------6-----------|

D|----------------------------------------------------------|
A|----------------------------------------------------------|
F|----------------------------------------------------------| Tricky bit x2
C|--------12-----9---------------------9-----6--------------|
G|---------------------10-----9--------------------7-----6--|
C|--9--9------9-----9------9-----9--6-----6-----6-----6-----|

chorus:

D|--------------------------------|
A|--------------------------------|
F|--------------------------------| x4
C|--------------------------------|
G|--9--9--6--9--9--9--6--4--7--3--|
C|--9--9--6--9--9--9--6--4--7--3--|

verse 2:

D|------------------------------|
A|------------------------------|
F|------------------------------| x2
C|---------12-------------9-----|
G|-----9------------6-----------|
C|-----9------------6-----------|



D|----------------------------------------------------------|
A|----------------------------------------------------------|
F|----------------------------------------------------------| Tricky bit
C|--------12-----9---------------------9-----6--------------| x2
G|---------------------10-----9--------------------7-----6--|
C|--9--9------9-----9------9-----6--6-----6-----6-----6-----|

chorus:

D|--------------------------------|
A|--------------------------------|
F|--------------------------------| x8
C|--------------------------------|
G|--9--9--6--9--9--9--6--4--7--3--|
C|--9--9--6--9--9--9--6--4--7--3--|

interlude:

D|-------------------------------|
A|-------------------------------|
F|-------------------------------| x16
C|-------------------------6--3--| 
G|--9\0--9\0--9\0--9\0--9--------|
C|--9\0--9\0--9\0--9\0--9--------|

chorus:

D|--------------------------------|
A|--------------------------------|
F|--------------------------------| x8
C|--------------------------------|
G|--9--9--6--9--9--9--6--4--7--3--|
C|--9--9--6--9--9--9--6--4--7--3--|
                                
that's all, listen to the song to know how it goes, and enjoy \m/ \m/
            

comments powered by Disqus
↑ Back to top | Cancer Bats Tabs for Dead Wrong. Lyrics for acoustic guitar and electric guitar. Tablatures and chords are parodies/interpretations of the original songs. You may use it for private study, scholarship, research or language learning purposes only