» » »

Butterscotch Tabs (ver.1)

Artists:  A B C D E F G H I J K L M N O P Q R S T U V W X Y Z # 

Butterscotch Tabs (ver.1)

Cancer Bats
Rating:
3/5 (1 vote)

Hard to play? Try these video lessons and learn fast.
                Cancer Bats
Drop C (Whole step down and drop D)

**UPDATE**
Breakdown has been added and interlude has been fixed

Legend:
*=palm mute
/=slide
~=let ring
x=mute
v=vibrato
h=hammer on
p=pull off

Intro
|-----------------------------|    |-----------------------------|
|-----------------------------|    |-----------------------------|
|-----------------------------|    |-----------------------------|
|-3-3-3-6-6-6-1-1-1-1-1-1-1-1-| x2 |-3-3-3-6-6-6-1-1-1-1-1-1-1-1-| x2
|-3-3-3-6-6-6-1-1-1-1-1-1-1-1-|    |-3-3-3-6-6-6-1-1-1-1-1-1-1-1-|
|-3-3-3-6-6-6-1-1-1-1-1-1-1-1-|    |-3-3-3-6-6-6-1-1-1-1-1-1-1-1-|
  * * * * * * * * * * * * * *
|-0-0-|
|-0-0-|
|-0-0-|
|-----|
|-----|
|-----|

Verse 1
|-------------------------------------------------------------------|
|-------------------------------------------------------------------|
|-------------------------------------------------------------------|
|-3-3-3--6-6-6--1-1-1-1-1-1-1-1--3-3-3--6-6-6--1-1-1-1-1-1-1-1------|
|-3-3-3--6-6-6--1-1-1-1-1-1-1-1--3-3-3--6-6-6--1-1-1-1-1-1-1-1------|
|-3-3-3--6-6-6--1-1-1-1-1-1-1-1--3-3-3--6-6-6--1-1-1-1-1-1-1-1-/14v-|

|----------------------------------------------------------|
|----------------------------------------------------------|
|----------------------------------------------------------|
|-3-3-3--6-6-6--1-1-1-1-1-1-1-1--3-3-3-6-6-6-1-1-1-1-1-1-1-|
|-3-3-3--6-6-6--1-1-1-1-1-1-1-1--3-3-3-6-6-6-1-1-1-1-1-1-1-|
|-3-3-3--6-6-6--1-1-1-1-1-1-1-1--3-3-3-6-6-6-1-1-1-1-1-1-1-|

|--------------------------------------------|    |-0-0---------------|
|--------------------------------------------|    |-0-0---------------|
|--------------------------------------------|    |-0-0---------------|
|-3x3-3x--6x6-6x--1x1x--3x3-3x--6x6-6x--1x1x-| x2 |-------------------|
|-3x3-3x--6x6-6x--1x1x--3x3-3x--6x6-6x--1x1x-|    |-------------------|
|-3x3-3x--6x6-6x--1x1x--3x3-3x--6x6-6x--1x1x-|    |-------------------|
|---------------------------------------------------------------------|
|---------------------------------------------------------------------|
|---------------------------------------------------------------------|
|-3-3-3--6-6-6--1-1-1-1-1-1-1-1--3-3-3--6-6-6--1-1-1-1-1-1-1-1--------|
|-3-3-3--6-6-6--1-1-1-1-1-1-1-1--3-3-3--6-6-6--1-1-1-1-1-1-1-1--------|
|-3-3-3--6-6-6--1-1-1-1-1-1-1-1--3-3-3--6-6-6--1-1-1-1-1-1-1-1-/14v---|

|----------------------------------------------------------|
|----------------------------------------------------------|
|----------------------------------------------------------|
|-3-3-3--6-6-6--1-1-1-1-1-1-1-1--3-3-3-6-6-6-1-1-1-1-1-1-1-|
|-3-3-3--6-6-6--1-1-1-1-1-1-1-1--3-3-3-6-6-6-1-1-1-1-1-1-1-|
|-3-3-3--6-6-6--1-1-1-1-1-1-1-1--3-3-3-6-6-6-1-1-1-1-1-1-1-|

|------------------------|
|------------------------|
|------------------------|
|-1/6-1/6-1/6--1-1-1-1-1-|
|-1/6-1/6-1/6--1-1-1-1-1-|
|-1/6-1/6-1/6--1-1-1-1-1-|
               * * * * *

Chorus
|-----------------------|
|-------5/6---6\5---5/6-|
|-----------------------|
|-000------0-----0------|
|-000------0-----0------|
|-000------0-----0------|
  ***      *     *
|------------------------|
|------------------------|
|------------------------|
|-1/6-1/6-1/6--1-1-1-1-1-|
|-1/6-1/6-1/6--1-1-1-1-1-|
|-1/6-1/6-1/6--1-1-1-1-1-|
               * * * * *

|-----------------------------|
|-----------------------------|
|-----------------------------|
|-00-0h1-00-0h1-00-0h1-00-0h1-|
|-00-0h1-00-0h1-00-0h1-00-0h1-|
|-00-0h1-00-0h1-00-0h1-00-0h1-|

|------------------------|
|------------------------|
|------------------------|
|-1/6-1/6-1/6--1-1-1-1-1-|
|-1/6-1/6-1/6--1-1-1-1-1-|
|-1/6-1/6-1/6--1-1-1-1-1-|
                * * * * *

|---------------------------------|
|-------5--------5--------5-----5-|
|-------0--------0--------0-----0-|
|-0-0-----0-0------0-0-----0-0----|
|-0-0-----0-0------0-0-----0-0----|
|-0-0-----0-0------0-0-----0-0----|
  * *     * *      * *     * *


|------------------------|
|------------------------|
|------------------------|
|-1/6-1/6-1/6--1-1-1-1-1-|
|-1/6-1/6-1/6--1-1-1-1-1-|
|-1/6-1/6-1/6--1-1-1-1-1-|
               * * * * *

|-----------------------------0-0-|
|-----------------------------0-0-|
|-----------------------------0-0-|
|-0-0-0-0-0-0-0-0-0-0-0-0-0-------|
|-0-0-0-0-0-0-0-0-0-0-0-0-0-------|
|-0-0-0-0-0-0-0-0-0-0-0-0-0-------|

Verse 2
|------------------------------------------------------------------|
|------------------------------------------------------------------|
|------------------------------------------------------------------|
|-3-3-3--6-6-6--1-1-1-1-1-1-1-1--3-3-3--6-6-6--1-1-1-1-1-1-1-1-----|
|-3-3-3--6-6-6--1-1-1-1-1-1-1-1--3-3-3--6-6-6--1-1-1-1-1-1-1-1-----|
|-3-3-3--6-6-6--1-1-1-1-1-1-1-1--3-3-3--6-6-6--1-1-1-1-1-1-1-1/14v-|

|----------------------------------------------------------|
|----------------------------------------------------------|
|----------------------------------------------------------|
|-3-3-3--6-6-6--1-1-1-1-1-1-1-1--3-3-3-6-6-6-1-1-1-1-1-1-1-|
|-3-3-3--6-6-6--1-1-1-1-1-1-1-1--3-3-3-6-6-6-1-1-1-1-1-1-1-|
|-3-3-3--6-6-6--1-1-1-1-1-1-1-1--3-3-3-6-6-6-1-1-1-1-1-1-1-|

|------------------------|
|------------------------|
|------------------------|
|-1/6-1/6-1/6--1-1-1-1-1-|
|-1/6-1/6-1/6--1-1-1-1-1-|
|-1/6-1/6-1/6--1-1-1-1-1-|
               * * * * *
Repeat Chorus

Interlude
|----------------------------------------------------|
|----------------------------------------------------|
|----------------------------------------------------|
|-0-0-0-0-0-0-0-0-0-0-0-0-0-0-3p5~--3p5~--3p5---3p5--|
|-0-0-0-0-0-0-0-0-0-0-0-0-0-0-3p5~--3p5~--3p5~--3p5--|
|-0-0-0-0-0-0-0-0-0-0-0-0-0-0-3p5~--3p5~--3p5~--3p5--|

|----------------------------------------------------|
|----------------------------------------------------|
|----------------------------------------------------|
|-0-0-0-0-0-0-0-0-0-0-0-0-0-0-3h1~--3h1~--3h1~--3h1--|
|-0-0-0-0-0-0-0-0-0-0-0-0-0-0-3h1~--3h1~--3h1~--3h1--|
|-0-0-0-0-0-0-0-0-0-0-0-0-0-0-3h1~--3h1~--3h1~--3h1--| Play whole Interlude twice


Breakdown
|--------------------------------------------------------|
|--------------------------------------------------------|
|--------------------------------------------------------|
|--------------------------------------------------3~--\-|
|-----3-----<6>--------------------------------<6>-3~--\-|
|--/6---6/8-----8/10--10-10-9-8-6h8-6h8-6-6-6h8----3~--\-|

|--------------------------------------------------------|
|--------------------------------------------------------|
|--------------------------------------------------------|
|--------------------------------------------------3~--\-|
|-----3-----<6>--------------------------------<6>-3~--\-|
|--/6---6/8-----8/10--10-10-9-8-6h8-6h8-6-6-6h8----3~--\-|

|----------------------------------------------------------------|
|----------------------------------------------------------------|
|----------------------------------------------------------------|
|----------------------------------------------------------------|
|-----3-----<6>--------------------------------<6>---------------|
|--/6---6/8-----8/10--10-10-9-8-6h8-6h8-6-6-6h8----3-3-3-333-333-|
                                                   * * * *** ***
|------------------------------------------------------------|
|------------------------------------------------------------|
|------------------------------------------------------------|
|------------------------------------------------------------|
|-----3-----<6>--------------------------------<6>-----------|
|--/6---6/8-----8/10--10-10-9-8-6h8-6h8-6-6-6h8----3b^~~~rb~-|

|------------------------------------------------------------------------|
|------------------------------------------------------------------------|
|------------------------------------------------------------------------|
|----------------------------------------------------------------------3-|
|-----3-----<6>--------------------------------<6>--------<6>--------6-3-|
|--/6---6/8-----8/10--10-10-9-8-6h8-6h8-6-6-6h8----6-6-6h8----6-6-6h8--3-|

|------0-0-|
|------0-0-|
|------0-0-|
|-3-33-----|
|-3-33-----|
|-3-33-----|
    **
Verse3
Just play Verse 2 again

Repeat Chorus


That’s all for now. Please rate!!!
            
Hard to play? Try these video lessons and learn fast. | Correct




comments powered by Disqus
↑ Back to top | Tablatures and chords are parodies/interpretations of the original songs. You may use it for private study, scholarship, research or language learning purposes only