» » »

Cancer Bats, Breathe Armageddon Tabs (ver.1)

Artists:  A B C D E F G H I J K L M N O P Q R S T U V W X Y Z # 

Breathe Armageddon Tabs (ver.1)

Cancer Bats Tabs
 Rating:
4/5 (4 votes)
Breathe Armageddon lessons Tabs too difficult? Try these video lessons and learn fast
                
_______________________________________________________________________
|  Breathe Armageddon - Dead Set Of Living (2012)                     |
|                                                                     |
|  Drop C Tuning   -   Legend At Bottom                               |
|                                                                     |
|  Done by ear.  Sounds Fine to me, But Any Changes let me know :)    |
|                                                                     |
|_____________________________________________________________________|


INTRO/VERSE 1

--------------------------------------------------------------------|
--------------------------------------------------------------------|
--------------------------------------------------------------------|
--0-5-0-5/6-0-3/5-0-5-0-5/6-0----0-5-0-5/6-0-3/5-0-5-0-5/6-0-8\3----|
--0-5-0-5/6-0-3/5-0-5-0-5/6-0----0-5-0-5/6-0-3/5-0-5-0-5/6-0-8\3----|
--0-5-0-5/6-0-3/5-0-5-0-5/6-0-3b-0-5-0-5/6-0-3/5-0-5-0-5/6-0-8\3----|


'I see the eyes of the hunted, I've seen them run in the night'
--------------------------------------------------------------------|
--------------------------------------------------------------------|
--------------------------------------------------------------------|
--0-5-0-5/6-0-3/5-0-5-0-5/6-0----0-5-0-5/6-0-3/5-0-5-0-5/6-0-8\3----|
--0-5-0-5/6-0-3/5-0-5-0-5/6-0----0-5-0-5/6-0-3/5-0-5-0-5/6-0-8\3----|
--0-5-0-5/6-0-3/5-0-5-0-5/6-0-3b-0-5-0-5/6-0-3/5-0-5-0-5/6-0-8\3----|


'I've seen them cast in the shadows, Ive seen them cut like a  knife'
--------------------------------------------------------------------|
--------------------------------------------------------------------|
--------------------------------------------------------------------|
--0-5-0-5/6-0-3/5-0-5-0-5/6-0----0-5-0-5/6-0-3/5-0-5-0-5/6-0-8\3----|
--0-5-0-5/6-0-3/5-0-5-0-5/6-0----0-5-0-5/6-0-3/5-0-5-0-5/6-0-8\3----|
--0-5-0-5/6-0-3/5-0-5-0-5/6-0-3b-0-5-0-5/6-0-3/5-0-5-0-5/6-0-8\3----|

'All the mind sees, corrupted by greed, As the world burns..'
--------------------------------------------------------------------|
--------------------------------------------------------------------|
--------------------------------------------------------------------|
--0-5-0-5/6-0-3/5-0-5-0-5/6-0----0-5-0-5/6-0---5----5---------------|
--0-5-0-5/6-0-3/5-0-5-0-5/6-0----0-5-0-5/6-0------8--h8p5-8-5-4*----|
--0-5-0-5/6-0-3/5-0-5-0-5/6-0-3b-0-5-0-5/6-0-3----------------------|


CHORUS


'Yeah, With Your steaks cut high, you get your cut of it'
--------------------------------------------------------------------|
--------------------------------------------------------------------|
--------------------------------------------------------------------|
--0-5-0-5/6-0-3/5-0-5-0-5/6-0----0-5-0-5/6-0---5----5---------------|
--0-5-0-5/6-0-3/5-0-5-0-5/6-0----0-5-0-5/6-0------8--h8p5-8-5-4*----|
--0-5-0-5/6-0-3/5-0-5-0-5/6-0-3b-0-5-0-5/6-0-3----------------------|

'Ashes to ashes, ending all truth, no one survives'
--------------------------------------------------------------------|
--------------------------------------------------------------------|
--------------------------------------------------------------------|
--0-5-0-5/6-0-3/5-0-5-0-5/6-0----0-5-0-5/6-0---5----5---------------|
--0-5-0-5/6-0-3/5-0-5-0-5/6-0----0-5-0-5/6-0------8--h8p5-8-5-4*----|
--0-5-0-5/6-0-3/5-0-5-0-5/6-0-3b-0-5-0-5/6-0-3----------------------|

---------------------------------------------------------------|
---------------------------------------------------------------|
---------------------------------------------------------------|
--5----5------------10-----10----------------5~---------5/12\3-|
-----8--h8p5-8-5-4*-----13---h13p10-13-10-9*-5~---------5/12\3-|
---------------------------------------------5~---------5/12\3-|


VERSE 2

'I've seen the hands of the hunter, I've seen them march to the right'
--------------------------------------------------------------------|
--------------------------------------------------------------------|
--------------------------------------------------------------------|
--0-5-0-5/6-0-3/5-0-5-0-5/6-0----0-5-0-5/6-0-3/5-0-5-0-5/6-0-8\3----|
--0-5-0-5/6-0-3/5-0-5-0-5/6-0----0-5-0-5/6-0-3/5-0-5-0-5/6-0-8\3----|
--0-5-0-5/6-0-3/5-0-5-0-5/6-0-3b-0-5-0-5/6-0-3/5-0-5-0-5/6-0-8\3----|

'Polluted with Pride, changing with tides, As the world burns..'
--------------------------------------------------------------------|
--------------------------------------------------------------------|
--------------------------------------------------------------------|
--0-5-0-5/6-0-3/5-0-5-0-5/6-0----0-5-0-5/6-0---5----5---------------|
--0-5-0-5/6-0-3/5-0-5-0-5/6-0----0-5-0-5/6-0------8--h8p5-8-5-4*----|
--0-5-0-5/6-0-3/5-0-5-0-5/6-0-3b-0-5-0-5/6-0-3----------------------|


CHORUS 2

'Yeah, With Your steaks cut high, you get your cut of it'
--------------------------------------------------------------------|
--------------------------------------------------------------------|
--------------------------------------------------------------------|
--0-5-0-5/6-0-3/5-0-5-0-5/6-0----0-5-0-5/6-0---5----5---------------|
--0-5-0-5/6-0-3/5-0-5-0-5/6-0----0-5-0-5/6-0------8--h8p5-8-5-4*----|
--0-5-0-5/6-0-3/5-0-5-0-5/6-0-3b-0-5-0-5/6-0-3----------------------|

'Highest of places, Lowest of lows, No one survives'
--------------------------------------------------------------------|
--------------------------------------------------------------------|
--------------------------------------------------------------------|
--0-5-0-5/6-0-3/5-0-5-0-5/6-0----0-5-0-5/6-0---5----5---------------|
--0-5-0-5/6-0-3/5-0-5-0-5/6-0----0-5-0-5/6-0------8--h8p5-8-5-4*----|
--0-5-0-5/6-0-3/5-0-5-0-5/6-0-3b-0-5-0-5/6-0-3----------------------|

---------------------------------------------------------------------------|
---------------------------------------------------------------------------|
--------------------------12-----12----------------------------------------|
--10-----10-------------------15---h15p12-15-12-11*------------------------|
------13---h13p10-13-10-9*-------------------------------------------------|
----------------------------------------------------8-8-8-10-10-11-11/3\5--|

BRIDGE

'The Fear, The Light The Death, I Am The Son of the Atom'
-----------------------------------------------------------|
-----------------------------------------------------------|
-----------------------------------------------------------|
--5--5-----------------5--5--------------------------------|
--5--5-----------------5--5--------------------------------|
--5--5--12--11--8--3b--5--5--12--11--15--8b----------------|

'The War, The Sun, The Hate, I Am The Nuclear Winter'
-----------------------------------------------------------|
-----------------------------------------------------------|
-----------------------------------------------------------|
--5--5-----------------5--5--------------------------------|
--5--5-----------------5--5--------------------------------|
--5--5--12--11--8--3b--5--5--12--11--15--8b----------------|

The Fear, The Light The Death, I Am The Son of the Atom'
-----------------------------------------------------------|
-----------------------------------------------------------|
-----------------------------------------------------------|
--5--5-----------------5--5--------------------------------|
--5--5-----------------5--5--------------------------------|
--5--5--12--11--8--3b--5--5--12--11--15--8b----------------|

'The War, The Sun, The Hate, I'm Breathing Armageddon'
------------------------------------------------------------|
------------------------------------------------------------|
------------------------------------------------------------|
--5--5-----------------5--5---------------------5~----------|
--5--5-----------------5--5---------------------5~----------|
--5--5--12--11--8--3b--5--5--12--11--15--8b-----5~--0/12\3--|



VERSE 3

'I tried to break from the cycle, I tried my best to decide'
-----------------------------------------------------------|
-----------------------------------------------------------|
-----------------------------------------------------------|
-----------------------------------------------------------|
-----------------------------------------------------------|
-----------------------------------------------------------|

'Ask the right questions, see through the lies, as the world burns..'
-----------------------------------------------------------|
-----------------------------------------------------------|
-----------------------------------------------------------|
-----------------------------------------------------------|
-----------------------------------------------------------|
--------------------------------------NB:-----------0/12\0-|

(NB: at the end here there is feedback.  Turn down rhytmn volume to 0, put treble volume 
up max then flick your switch to rhytmn.
Listen to the song to get timing right, then flick to treble and shake your guitar once)


---------------------------------------------------------------------------|
---------------------------------------------------------------------------|
---------------------------------------------------------------------------|
-0/6-66\2/5-55-55---0/6-66\2/5-55-55---0/6-66\2/5-55-55---0/6-66\2/5-55-55-|
---------------------------------------------------------------------------|
---------------------------------------------------------------------------|

'Everything we know, Always been a lie, Everything we know, Aways been a lie'
----------------------------------------------------------|
----------------------------------------------------------|
----------------------------------------------------------|
---------------0/6-66/8\5b----------------0/6-66/8\5b-----|
----------------------------------------------------------|
-0/6-66\2/5p0--------------0/6-66\2/5p0-------------------|

'Everything we know, Always been a lie, Everything we know, Aways been a lie'
----------------------------------------------------------|
----------------------------------------------------------|
----------------------------------------------------------|
---------------0/6-66/8\5b----------------0/6-66/8\5b-----|
----------------------------------------------------------|
-0/6-66\2/5p0--------------0/6-66\2/5p0-------------------|

'Everything we know, Always been a lie, Everything we know!'
----------------------------------------------------------|
----------------------------------------------------------|
----------------------------12-----12---------------------|
---------------0/6-66/8\5b------15---h15p12-15-12-11*-----|
----------------------------------------------------------|
-0/6-66\2/5p0---------------------------------------------|


CHORUS 3

'Yeah, With Your steaks cut high, you get your cut of it'
--------------------------------------------------------------------|
--------------------------------------------------------------------|
--------------------------------------------------------------------|
--0-5-0-5/6-0-3/5-0-5-0-5/6-0----0-5-0-5/6-0---5----5---------------|
--0-5-0-5/6-0-3/5-0-5-0-5/6-0----0-5-0-5/6-0------8--h8p5-8-5-4*----|
--0-5-0-5/6-0-3/5-0-5-0-5/6-0-3b-0-5-0-5/6-0-3----------------------|

'Cold hard facts absolute truths, No one survives'
--------------------------------------------------------------------|
--------------------------------------------------------------------|
--------------------------------------------------------------------|
--0-5-0-5/6-0-3/5-0-5-0-5/6-0----0-5-0-5/6-0---5----5---------------|
--0-5-0-5/6-0-3/5-0-5-0-5/6-0----0-5-0-5/6-0------8--h8p5-8-5-4*----|
--0-5-0-5/6-0-3/5-0-5-0-5/6-0-3b-0-5-0-5/6-0-3----------------------|

'Yeh, let the fake shine, there is no surviving it'
--------------------------------------------------------------------|
--------------------------------------------------------------------|
--------------------------------------------------------------------|
--0-5-0-5/6-0-3/5-0-5-0-5/6-0----0-5-0-5/6-0-3/5-0-5-0-5/6-0-8\3----|
--0-5-0-5/6-0-3/5-0-5-0-5/6-0----0-5-0-5/6-0-3/5-0-5-0-5/6-0-8\3----|
--0-5-0-5/6-0-3/5-0-5-0-5/6-0-3b-0-5-0-5/6-0-3/5-0-5-0-5/6-0-8\3----|

'Nothing to believe, Nothing to perceive, As the world Burns...'
--------------------------------------------------------------------|
--------------------------------------------------------------------|
--------------------------------------------------------------------|
--0-5-0-5/6-0-3/5-0-5-0-5/6-0----0-5-0-5/6-0---5----5---------------|
--0-5-0-5/6-0-3/5-0-5-0-5/6-0----0-5-0-5/6-0------8--h8p5-8-5-4*----|
--0-5-0-5/6-0-3/5-0-5-0-5/6-0-3b-0-5-0-5/6-0-3----------------------|


---------------------------------------------------------------------------|
---------------------------------------------------------------------------|
--------------------------12-----12----------------------------------------|
--10-----10-------------------15---h15p12-15-12-11*------------------------|
------13---h13p10-13-10-9*-------------------------------------------------|
----------------------------------------------------8-8-8-10-10-11-11/3\5--|

OUTRO

'The Fear, The Light The Death, I Am The Son of the Atom'
-----------------------------------------------------------|
-----------------------------------------------------------|
-----------------------------------------------------------|
--5--5-----------------5--5--------------------------------|
--5--5-----------------5--5--------------------------------|
--5--5--12--11--8--3b--5--5--12--11--15--8b----------------|

'The War, The Sun, The Hate, I Am The Nuclear Winter'
-----------------------------------------------------------|
-----------------------------------------------------------|
-----------------------------------------------------------|
--5--5-----------------5--5--------------------------------|
--5--5-----------------5--5--------------------------------|
--5--5--12--11--8--3b--5--5--12--11--15--8b----------------|

'The Fear, The Light The Death, I Am The Son of the Atom'
-----------------------------------------------------------|
-----------------------------------------------------------|
-----------------------------------------------------------|
--5--5-----------------5--5--------------------------------|
--5--5-----------------5--5--------------------------------|
--5--5--12--11--8--3b--5--5--12--11--15--8b----------------|

'The War, The Sun, The Hate, I'm Breathing Armageddon'
-------------------------------------------------------------|
-------------------------------------------------------------|
-------------------------------------------------------------|
--5--5-----------------5--5---------------------5~-----------|
--5--5-----------------5--5---------------------5~-----------|
--5--5--12--11--8--3b--5--5--12--11--15--8b-----5~-----------|


LEGEND

\ - Slide Up

/ - Slide Down

* - Pinch Harmonic

b - Bend

h - Hammer On

p - Pull Off

~ - Sustain Note
            
Submit corrections

comments powered by Disqus
↑ Back to top | Cancer Bats Tabs for Breathe Armageddon. Lyrics for acoustic guitar and electric guitar. Tablatures and chords are parodies/interpretations of the original songs. You may use it for private study, scholarship, research or language learning purposes only