» » »

100 Grand Canyon Tabs (ver.3)

Artists:  A B C D E F G H I J K L M N O P Q R S T U V W X Y Z # 

100 Grand Canyon Tabs (ver.3)

Cancer Bats
Rating:
0/5 (0 votes)

Tabs too difficult? Try these video lessons and learn fast.
                (Intro)
Drop C

Riff 1

|-------|
|-------|
|-------|
|-------|
|--12/--|
|--12/--|

|----------------------------------------------------|
|----------------------------------------------------|
|----------------------------------------------------|
|----------------------------------------------------|
|----4-4--3*-1-1-1-1-1-1---4-4--3*-1-1-1-1-1-1--12/--|
|--0--0--0--0-0---0---0--0--0--0--0--0--0---0---12/--| 
   .  .  .  . .   .   .  .  .  .  .  .  .   . 
|-----------------------------------------------|
|-----------------------------------------------|
|-----------------------------------------------|
|-----------------------------------------------|
|----4-4--3*-1-1-1-1-1-1---4-4--3*-1---5-5-5-5--|
|--0--0--0--0-0---0---0--0--0--0--0--0----0-0---| 
   .  .  .  . .   .   .  .  .  .  .  .    . .
(do random pinch harmonics on the 5's)

Riff 2

|-------------|
|-------------|
|-------------|
|-------------|
|--1-x8-5-x8--|
|--1----5-----|

Riff 3

|----------------------|
|----------------------|
|----------------------|
|---3-3-3-7--3-3-3-----|
|---1-1-1-5--1-1-1-5*--|
|--0---0----0---0------|
   .   .    .   .


I'll figure out the rest when I have some more free time.
            
Tabs too difficult? Try these video lessons and learn fast.


comments powered by Disqus
↑ Back to top | Tablatures and chords are parodies/interpretations of the original songs. You may use it for private study, scholarship, research or language learning purposes only