» » »

Camp Kill Yourself, Victory Tabs (ver.1)

Artists:  A B C D E F G H I J K L M N O P Q R S T U V W X Y Z # 

Victory Tabs (ver.1)

Camp Kill Yourself Tabs
Rating:
0/5 (0 votes)
Victory lessons Tabs too difficult? Try these video lessons and learn fast
                Tuning: 1/2 step down

This is another cool instrumental song...I tabbed just then 
lead because there are many layerd guitars in this song.

Part A x4
-|-----------------------------------------------------------------------------
-|-----------------------------------------------------------------------------
-|-----------------------------------------------------------------------------
-|-----------7--5-------------9---7--5---7--0----------------------------------
-|-7----7-5--------5---7-------------------------------------------------------
-|-----------------------------------------------------------------------------
                                                                              
Part B x2
-|-----------------------------------------------------------------------------
-|-----------------------------------------------------------------------------
-|-----------------------------------------------------------------------------
-|---9---10---9---9-----------9----10-----9----9------9----10-12--14-----------
-|-8---8----8---8-------10-12---12----112---12-----12---12---------------------
-|-----------------------------------------------------------------------------
 pm.   .    .   .  x2       .    .     .    .      .    .                     

Part C (fade out)
-|-----------------------------------------------------------------------------
-|-----------------------------------------------------------------------------
-|-----------------------------------------------------------------------------
-|-----------------------------------------------------------------------------
-|-2----4---0---4-4-0--4--2----5/7-5--55/7--10/12-10-10/12---------------------
-|-----------------------------------------------------------------------------
            
Submit corrections

comments powered by Disqus
↑ Back to top | Camp Kill Yourself Tabs for Victory. Lyrics for acoustic guitar and electric guitar. Tablatures and chords are parodies/interpretations of the original songs. You may use it for private study, scholarship, research or language learning purposes only