» » »

Santa's Coming Tabs (ver.1)

Artists:  A B C D E F G H I J K L M N O P Q R S T U V W X Y Z # 

Santa's Coming Tabs (ver.1)

Camp Kill Yourself
Rating:
0/5 (0 votes)

Hard to play? Try these video lessons and learn fast.
                CKY



song Santa is coming 






eb-------------------------------------------------|
Bb-------------------------------------------------|
Gb-7-------7---7/9\7-----7-------7/9\7-------------|
Db-7---7---7---------9---7---7---------9--7\5------|
Ab-5---7---5-------------5---7----------------7----|
Eb-----5---------------------5---------------------|


|------------------------------------------------------------------|
|------------------------------------------------------------------|
|------------------7-7---------------------------------------------|
|------7-7--7--7/9----------7-7--7---9-7-5-5-----7-----4----5-5----|
|-5/9-------------------5/9-------------------9-----5-----7------4-|
|------------------------------------------------------------------|


eb-------------------------------------------------|
Bb-------------------------------------------------|
Gb-7-------7---7/9\7-----7-------7/9\7-------------|
Db-7---7---7---------9---7---7---------9--7\5------|
Ab-5---7---5-------------5---7----------------7----|
Eb-----5---------------------5---------------------|

Verse
|-------------------------------------------|
|-------------------------------------------|
|------------------7-7----------------------|
|------7-7--7-7/9------------7-7--7-9-7-5-5-|
|-5/9------------------5/9------------------|
|-------------------------------------------|


i´m gonna kill u
          PM........
|--------------------|--------|
|--------------------|--------|
|--------------------|--------|
|--------------------|--------|
|-2-22-4-3--3333333--|--------|
|-0-00-2-1--1111111--|-3AH----|

         
eb-------------------------------------------------|
Bb-------------------------------------------------|
Gb-7-------7---7/9\7-----7-------7/9\7-------------|
Db-7---7---7---------9---7---7---------9--7\5------|
Ab-5---7---5-------------5---7----------------7----|
Eb-----5---------------------5---------------------|

Verse
|-------------------------------------------|
|-------------------------------------------|
|------------------7-7----------------------|
|------7-7--7-7/9------------7-7--7-9-7-5-5-|
|-5/9------------------5/9------------------|
|-------------------------------------------|


i´m gonna kill u
          PM........
|--------------------|--------|
|--------------------|--------|
|--------------------|--------|
|--------------------|--------|
|-2-22-4-3--3333333--|--------|
|-0-00-2-1--1111111--|-3AH----|
         

|-----------------------------------------------------------------|
|-------------------------------------7---------------------------|
|-7-9-7-6-7--------7-9-7-6-7--------9---9-8-9-6-6-6--6-7-9-7-6----|
|-----------9-9-9------------9-9-9-----------------------------9-7|
|-----------------------------------------------------------------|
|-----------------------------------------------------------------|

eb-------------------------------------------------|
Bb-------------------------------------------------|
Gb-7-------7---7/9\7-----7-------7/9\7-------------|
Db-7---7---7---------9---7---7---------9--7\5------|
Ab-5---7---5-------------5---7----------------7----|
Eb-----5---------------------5---------------------|


|------------------------------------------------------------------|
|------------------------------------------------------------------|
|------------------7-7---------------------------------------------|
|------7-7--7--7/9----------7-7--7---9-7-5-5-----7-----4----5-5----|
|-5/9-------------------5/9-------------------9-----5-----7------4-|
|------------------------------------------------------------------|


eb-------------------------------------------------|
Bb-------------------------------------------------|
Gb-7-------7---7/9\7-----7-------7/9\7-------------|
Db-7---7---7---------9---7---7---------9--7\5------|
Ab-5---7---5-------------5---7----------------7----|
Eb-----5---------------------5---------------------|

Verse
|-------------------------------------------|
|-------------------------------------------|
|------------------7-7----------------------|
|------7-7--7-7/9------------7-7--7-9-7-5-5-|
|-5/9------------------5/9------------------|
|-------------------------------------------|

          PM........
|--------------------|--------|
|--------------------|--------|
|--------------------|--------|
|--------------------|--------|
|-2-22-4-3--3333333--|--------|
|-0-00-2-1--1111111--|-3AH----|

eb-------------------------------------------------|
Bb-------------------------------------------------|
Gb-7-------7---7/9\7-----7-------7/9\7-------------|
Db-7---7---7---------9---7---7---------9--7\5------|
Ab-5---7---5-------------5---7----------------7----|
Eb-----5---------------------5---------------------|

Verse
|-------------------------------------------|
|-------------------------------------------|
|------------------7-7----------------------|
|------7-7--7-7/9------------7-7--7-9-7-5-5-|
|-5/9------------------5/9------------------|
|-------------------------------------------|

          PM........
|--------------------|--------|
|--------------------|--------|
|--------------------|--------|
|--------------------|--------|
|-2-22-4-3--3333333--|--------|
|-0-00-2-1--1111111--|-3AH----|

Verse
|-------------------------------------------|
|-------------------------------------------|
|------------------7-7----------------------|
|------7-7--7-7/9------------7-7--7-9-7-5-5-|
|-5/9------------------5/9------------------|
|-------------------------------------------|

eb-------------------------------------------------|
Bb-------------------------------------------------|
Gb-7-------7---7/9\7-----7-------7/9\7-------------|
Db-7---7---7---------9---7---7---------9--7\5------|
Ab-5---7---5-------------5---7----------------7----|
Eb-----5---------------------5---------------------|

Verse
|-------------------------------------------|
|-------------------------------------------|
|------------------7-7----------------------|
|------7-7--7-7/9------------7-7--7-9-7-5-5-|
|-5/9------------------5/9------------------|
|-------------------------------------------|

|------------------------|---|
|------------------------|---|
|------------------------|-7-|
|------7-----4----5-5----|-7-|
|---9-----5-----7------4-|-5-|
|------------------------|---|
            
Hard to play? Try these video lessons and learn fast. | Correct




comments powered by Disqus
↑ Back to top | Tablatures and chords are parodies/interpretations of the original songs. You may use it for private study, scholarship, research or language learning purposes only