» » »

Rio Bravo Tabs (ver.1)

Artists:  A B C D E F G H I J K L M N O P Q R S T U V W X Y Z # 

Rio Bravo Tabs (ver.1)

Camp Kill Yourself
Rating:
0/5 (0 votes)

Tabs too difficult? Try these video lessons and learn fast.
                cKy- Rio Bravo (volume 1)
Tuning: D A D G b E
 
-Have Fun!!!-

           Intro 1
---6---6---6-----6-6---6---6---6-----6-6---6---6---6-----6-6-----------------6-6- 
---5---5---5-----5-5---5---5---5-----5-5---5---5---5-----5-5-----------------5-5- 
-0---0---0-----------0---0---0-----------0---0---0-----------0---0---0----------- 

           Intro 2 
---6---7-6-5-------------3--------------------------------------- 
---5-----------5---3-4-5-------------7-6-5----------------------- 
-0---0------------------------0--0-0---------0---5-6-7-8-7-6-5-3- 

-------------------------------------------------------------- 
-------------------------------------------------------------- 
-------------------------------------------------------------- 
----7-6-5-------------3--------------------------------------- 
------------5---3-4-5-------------7-6-5----------------------- 
-0-------------------------0--0-0---------0---5-6-7-8-7-6-5-3-

----------------------------------------------------- 
----------------------------------------------------- 
----------------------------------------------------- 
---7-6-5-------------3------------------------------- 
-----------5---3-4-5-------------7-6-5--------------- 
-0--------------------------0---0---------0--5-6-7-8- 

----------------3---------------3---------7-6-5----------------------------3--------
----------3-4-5-----------3-4-5-----------------5--------------------3-4-5----------
-7-6-5-3----------7-6-5-3---------0---0---------------------7-6-5-3----------7-6-5-3-


            After that barking noise comes: 

e:----------
b:----------
g:----------
d:----------
a:----------
D: -7-6-5-3-

            Verse: repeat 12 times 
--------------------- 
--------------------- 
--------------------- 
---6---6---6-----6-6- 
---5---5---5-----5-5- 
-0---0---0-----------
            
Tabs too difficult? Try these video lessons and learn fast.




comments powered by Disqus
↑ Back to top | Tablatures and chords are parodies/interpretations of the original songs. You may use it for private study, scholarship, research or language learning purposes only