» » »

Camp Kill Yourself, Promiscuous Daughter Tabs (ver.1)

Artists:  A B C D E F G H I J K L M N O P Q R S T U V W X Y Z # 

Promiscuous Daughter Tabs (ver.1)

Camp Kill Yourself Tabs
 Rating:
4/5 (4 votes)
Promiscuous Daughter lessons Tabs too difficult? Try these video lessons and learn fast
                PROPS GO TO: Colin Kemege

CKY - My Promiscuous Daughter
Tuning:Tuned down one step (low to high: DGCFAD)

john, john, john, you forgot the most important part of the song...the awesome bridge/outro! sheesh, i guess ill add it my self....

Main Riff
These are 5th barre chords, you know like 

G                  G
---                 -3-
---                 -3-
---                 -4-
-5-                 -5-
-5-                 -5-
-3-   -3-

VERSE

E                            G
I caught my daughter giving head to my brother

Play X4

CHORUS

E
Only domestic free

D
----------------------------------
----------------------------------
----------------------------------
-7p5-5-5-5-5-7p-5-5-5-5-5-7-5-5-5-
----------------------------------
----------------------------------

I caught a graphic pain
Some say to innovate
I don't need that again

VERSE

E                            G
I caught my daughter giving head to my brother

Play X4

...then
BASS RIFF

G:------------------------------------------
D:-----9-9---7-7---5-7--5-7---7-5-7---------
A:-7----------------------------------5---5-
E:------------------------------------------

BRIDGE
-|-----------------------------------------------------------------------------
-|-----------------------------------------------------------------------------
-|-----------------------------------------------------------------------------
-|-----------------------------------------------------------------------------
-|-----------------------------------------------------------------------------
-|-0--12-9-7---0---3-5-5-5-0--0--12-9-7--0--3-555-0---------------------------- x5
            
Submit corrections

comments powered by Disqus
↑ Back to top | Camp Kill Yourself Tabs for Promiscuous Daughter. Lyrics for acoustic guitar and electric guitar. Tablatures and chords are parodies/interpretations of the original songs. You may use it for private study, scholarship, research or language learning purposes only