» » »

Camp Kill Yourself, Inhuman Creation Station Tabs (ver.2)

Artists:  A B C D E F G H I J K L M N O P Q R S T U V W X Y Z # 

Inhuman Creation Station Tabs (ver.2)

Camp Kill Yourself Tabs
Rating:
0/5 (0 votes)
Inhuman Creation Station lessons Tabs too difficult? Try these video lessons and learn fast
                PLEASE RATE THIS TAB! i played it with the cd and it sounds pretty right. There is distortion throughout the entire song and is tuned to D

RIFF 1 Verse pt. 1
E --------------------------|
B --------------------------|
G --------------------------|
D -----3--5p3---------------|
A --5---------5p3-----------|
D ----------------0-0-0--0--|

RIFF 2 Verse pt. 2
E ----------------------------|
B ----------------------------|
G ------------------2-0-------|
D -----2--3p2-0---------3p2h3-|
A --3-----------3-0-----------|
D ----------------------------|

RIFF 3 pre chorus pt 1
E ----------------------------|
B ----------------------------|
G ----------------------------|
D ------2h3-5p0-0--0----------|
A --0h3-----------------------|
D ----------------------------|

RIFF 4 pre chorus pt 2
E ------------------|
B ------------------|
G ------------------|
D ------2h3-----2h3-|
A --0h3-----0h3-----|
D ------------------|

RIFF 5 chorus pt 1
E --------------------------------------------------------------------|
B --------------------------------------------------------------------|
G --3-3-3-3-3-3-3-3-3-3-3-3-3-3-3-3-/-7-7-7-7-7-7-7-7-7-7-7-7-7-7-7-7-|
D --3-3-3-3-3-3-3-3-3-3-3-3-3-3-3-3-/-7-7-7-7-7-7-7-7-7-7-7-7-7-7-7-7-|
A --1-1-1-1-1-1-1-1-1-1-1-1-1-1-1-1-/-5-5-5-5-5-5-5-5-5-5-5-5-5-5-5-5-|
D --------------------------------------------------------------------|

E --------------------------------------------------------------------|
B --------------------------------------------------------------------|
G --3-3-3-3-3-3-3-3-3-3-3-3-3-3-3-3-/-7-7-7-7-7-7-7-7-7-7-7-7---------|
D --3-3-3-3-3-3-3-3-3-3-3-3-3-3-3-3-/-7-7-7-7-7-7-7-7-7-7-7-7-----5-5-|
A --1-1-1-1-1-1-1-1-1-1-1-1-1-1-1-1-/-5-5-5-5-5-5-5-5-5-5-5-5-3-3-----|
D --------------------------------------------------------------------|

no guitar in the second part of the chorus

solo-used with a flanger pedal-listen to song for the right timing
E -------------------------------------------------------------------------------|
B -------------------------------------------------------------------------------|
G -------------------------------------------------------------------------------|
D --0--5-0-3-5--3-0-3--5--3-0-3--5-----5-5--0--5-0-3-5--3-0-3--7/5--3-0-3--5-----|
A ---------------------------------3-3---------------------------------------3-3-|
D -------------------------------------------------------------------------------|

only drums in intro
RIFF 1 x4
RIFF 2 x1
RIFF 1 x6
RIFF 2 x1
RIFF 1 x6
RIFF 2 x1
RIFF 1 x1
RIFF 2 x1
RIFF 1 x1
RIFF 3 x8
RIFF 4 x1
RIFF 5 x1
part 2 of chorus-no guitar
RIFF 3 x4
RIFF 4 x1
RIFF 1 x4
RIFF 2 x1
RIFF 1 x6
RIFF 2 x1
RIFF 1 x1
RIFF 2 x1
RIFF 1 x1
RIFF 3 x8
RIFF 4 x1
RIFF 5 x1
part 2 of chorus-no guitar
SOLO
RIFF 3 x8
RIFF 4 x1
            
Submit corrections

comments powered by Disqus
↑ Back to top | Camp Kill Yourself Tabs for Inhuman Creation Station. Lyrics for acoustic guitar and electric guitar. Tablatures and chords are parodies/interpretations of the original songs. You may use it for private study, scholarship, research or language learning purposes only