» » »

Attached At The Hip Tabs (ver.1)

Artists:  A B C D E F G H I J K L M N O P Q R S T U V W X Y Z # 

Attached At The Hip Tabs (ver.1)

Camp Kill Yourself
Rating:
0/5 (0 votes)

Tabs too difficult? Try these video lessons and learn fast.
                this is only the tab for the 1 guitar, the other guitar is similar.

Tuned 1/2 step down (Eb Ab Db gb bb eb)

: = palm mute

Main Riff
[with distortion]                             1                       2
eb||--------------------|  --------------------||  --------------------||
bb||--------------------|  --------------------||  --------------------||
gb||.--4-4-4-4-4-4-4-4--|  -------------------.||  -------------------.||
Db||.--4-4-4-4-4-4-4-4--|  ----------2--------.||  ----------2-2------.||
Ab||---2-2-2-2-2-2-2-2--|  ------------5-------||  --------------5-5---||
Eb||--------------------|  --2-5-2-5-----2-5---||  --2-5-2-5-----------||
       1 + 2 + 3 + 4 +       1 + 2 + 3 + 4 +         1 + 2 + 3 + 4 +

[huge, 1 bar bend on bottom E string, fret 2]

Verse A
eb||---------------------||
bb||---------------------||
gb||.--4-4---4-4-4-4----.||
Db||.--4-4---4-4-4-4----.||
Ab||---2-2---2-2-2-2-----||
Eb||---:-:---:-:-:-:-----||
       1 + 2 + 3 + 4 +

Verse B
eb||-----------------------------------||
bb||-----------------------------------||
gb||.--4---4-------4-4-4-4-4-4-4------.||
Db||.--4---4-------4-4-4-4-4-4-4------.||
Ab||---2---2-------2-2-2-2-2-2-2-------||
Eb||---:---:-------:-:-:-:-:-:-:-------||
       1 e + a 2 e + a 3 e + a 4 e +

Chorus
eb||------|--------|-----|---------||
bb||------|--------|-----|---------||
gb||.--4--|--7-----|-----|--7--6--.||
Db||.--4--|--7--7--|--4--|--7--6--.||
Ab||---2--|--5--7--|--4--|--5--4---||
Eb||------|-----5--|--2--|---------||




ORDER
------------
Main Riff x2
bend      x1
Verse A   x4
Verse B   x4
Main Riff x2
Verse A   x4
Verse B   x4
Chorus    x4
Verse A   x4
Verse B   x4
Main Riff x2
Chorus    x4
Main Riff x2
bend and fade

I think that is all.  Just play it by ear.  
You’ll be able to figure it out quite easily.
            
Tabs too difficult? Try these video lessons and learn fast.




comments powered by Disqus
↑ Back to top | Tablatures and chords are parodies/interpretations of the original songs. You may use it for private study, scholarship, research or language learning purposes only