» » »

96 Quiet Bitter Beings Tabs (ver.1)

Artists:  A B C D E F G H I J K L M N O P Q R S T U V W X Y Z # 

96 Quiet Bitter Beings Tabs (ver.1)

Camp Kill Yourself
Rating:
0/5 (0 votes)

Hard to play? Try these video lessons and learn fast.
                Standard Tuning



Main Riff
e------------------------------------------------------------------------------------
b------------------------------------------------------------4/6--4------------------
g--------------------------------------------------------4----------4--2--0--4--0----
d--------2--6------------2--6--2--6--2-----------2--2--------------------------------
a-----4-------4-------4------------------6--2----------------------------------------
E------------------------------------------------------------------------------------



Verse
------------------------------------
------------------------------------
------------------------------------
-2x-2x-2x--------4x-4x-4x-----------
-2x-2x-2x---0x---4x-4x-4x-----------
-0x-0x-0x---0x---4x-4x-4x-----------
            
Hard to play? Try these video lessons and learn fast. | Correct




comments powered by Disqus
↑ Back to top | Tablatures and chords are parodies/interpretations of the original songs. You may use it for private study, scholarship, research or language learning purposes only