>
 >
Besame 2

Besame 2 Guitar Tabs

Camila - Besame 2 chords, tabs, tablatures, lyrics

Guitar lessons | Add/correct | Request | Top 50 tabs Artists:  A B C D E F G H I J K L M N O P Q R S T U V W X Y Z 0-9

Besame 2 Guitar Tabs – Camila

CD, Sheet music, Poster

Do you like Besame 2? Share with your friends now
ChordsTabsTabs v2Tabs v3Ukulele
Tuning: Eb

Intro:

|----------------------13h15-----------------------------|
|----------------13/15-------13h15--13--11-10h11---------|
|---10/12-14/15----------------------------------10/12---|
|--------------------------------------------------------|
|--------------------------------------------------------|
|--------------------------------------------------------|


Verso 1b:

|--------------------------------------------------------------|
|--------8~~------8p6-8/10-------------------------------------|
|---5/7---------7----------10/7~~------------------------------|
|--------------------------------------------------------------| 
|---------------------------------------5-5-5-5-5-5-5-5-5-5\---|
|---------------------------------------3-3-3-3-3-3-3-3-3-3\---|
                                        * * * * * * * * *


Coro 1:
|-------------------------------------------------------------------------------------|
|-----------------------------------------------------------11-13b15-13-11------------|
|----------------------------------------------------10/12------------------12~~/14---|
|---5--7-------------3-5/7--5--3------------------------------------------------------|
|---3--5----5---3/5---------------5~~/7~~---------------------------------------------|
|--------------3----------------------------------------------------------------------|


"Solo"
|--------------------------------------------------------------------------------|
|---18-------20-------18--------20-----------------------------------------------|
|-----15-15----15-15----15-15-----15-------15-------15-------17-------17---------|
|---------------------------------------12----12-12----12-12----12-12----12-12---|
|--------------------------------------------------------------------------------|
|--------------------------------------------------------------------------------|

|-----------------------------------------------|
|------18-------18-------20---------------------|
|---------15-15----15-15----15-15--15/17~~b19---|
|-----------------------------------------------|
|-----------------------------------------------|
|-----------------------------------------------|


Verso 2b:

|------------------------------------------------------------------------|
|------------------------------------------------------------------------|
|-------3-5b6b5-3-------6/8/6-------3h5-5b7r3-5--------------------------|
|---3/5-------------5/7----------3h5-------------------------------------|
|-------------------------------------------------------5-5-5-5-5-5-5\---|
|-------------------------------------------------------3-3-3-3-3-3-3\---|
                                                        * * * * * *


Coro 2:
|----------------------------------------------------------------------------|
|---------------------------------------------------11-13b15-13-11-----------|
|---------------------------------------------10/12----------------12~~/14---|
|---5--7---------------3h5p3-5-3---------------------------------------------|
|---3--5--5--3/5-----------------5~~/7~~-------------------------------------|
|---------3------------------------------------------------------------------|


"Puente"
|-----------------------------------|
|-----------------------------------|
|-----------------------------------|
|---8-8-8-8-8-8-8-8-8--8~~-8~~------|
|---6-6-6-6-6-6-6-6-6--6~~-6~~-5~~--|
|------------------------------3~~--|
    * * * * * * * * *

|-----------------13--------------------------------------------------15\-|
|--------11-13b15-v-15b13-11--------11-13--------------------12-12-12-----|
|--10/12----------------------12-14-------12-12-12--14-14-14--------------|
|-------------------------------------------------------------------------|
|-------------------------------------------------------------------------|
|-------------------------------------------------------------------------|


Coro 3:
|------------------------------------------------------18-------16---|
|-------------------11-13-11-13b15~~--11------18b20-20----20-18------|
|-------------10/12--------------------------------------------------|
|---5--7-------------------------------------------------------------|
|---3--5--5----------------------------------------------------------|
|---------3----------------------------------------------------------|


Outro:

|-------------------------------------------------------------------|
|-------8~~------8p6-8/10-----/15-13-11-10--11p10-------------------|
|---5/7--------7----------10----------------------10----------------|
|----------------------------------------------------10\8-7-3/5~~---|
|-------------------------------------------------------------------|
|-------------------------------------------------------------------|





Comments


Popular Camila tabs & chords
Arzame Chords
Coleccionista De Canciones Chords
Coleccionista De Canciones 3 Chords
Mientes 2 Chords
Todo Cambio Chords
Va Para Ti Chords
Besame Tabs
De Que Me Sirve La Vida 1 Tabs
Es De Verdad Tabs
Perderte De Nuevo Tabs


Song lyrics



↑ Back to top | Tablatures and chords are parodies/interpretations of the original songs. You may use it for private study, scholarship, research or language learning purposes only
© 2014 AZChords.com Contact us | Privacy policy | DMCA | Add/correct tabs | Request tabs | Top 50 tabs