» » »

Camera Obscura, Your Picture Tabs (ver.1)

Artists:  A B C D E F G H I J K L M N O P Q R S T U V W X Y Z # 

Your Picture Tabs (ver.1)

Camera Obscura Tabs
 Rating:
4/5 (6 votes)
Your Picture lessons Tabs too difficult? Try these video lessons and learn fast
1
                Album :Underachievers Please Try Harder
Title :Your Picture
Year  :2003



   E
E:---------------------|
B:---------------------|
G:---1-1-----1-1-------|
D:--2-2-2---2-2-2------|
A:--------2------------|
E:-0--------------0----|


   E                                C#m/G#
E:------------------------------------------------------------------|
B:------------------------------------------------------------------|
G:---1--1----1--1----1--1----1--1-----6--6----6--6----6--6----6--6--|
D:--2-2--2--2-2--2--2-2--2--2-2--2---6-6--6--6-6--6--6-6--6--6-6--6-|
A:---------2---------------2--------4---------------4---------------|
E:-0---------------0------------------------4---------------4-------|
My friend she told me such a story  But she didn't know what I knew
  	
   G#m                              A
E:------------------------------------------------------------------|
B:------------------------------------------------------------------|
G:---4--4----4--4----4--4----4--4-----6--6----6--6----6--6----6--6--|
D:--6-6--6--6-6--6--6-6--6--6-6--6---7-7--7--7-7--7--7-7--7--7-7--7-|
A:---------6---------------6----------------7---------------7-------|
E:-4---------------4----------------5---------------5---------------|
I laughed with my friend when she got to the end
  	  	  	  	    And I knew we were laughing at you

   E                                C#m/G#
E:------------------------------------------------------------------|
B:------------------------------------------------------------------|
G:---1--1----1--1----1--1----1--1-----6--6----6--6----6--6----6--6--|
D:--2-2--2--2-2--2--2-2--2--2-2--2---6-6--6--6-6--6--6-6--6--6-6--6-|
A:---------2---------------2--------4---------------4---------------|
E:-0---------------0------------------------4---------------4-------|
She told me you'd made some money You got yourself framed on the wall

   G#m                              B
E:------------------------------------------------------------------|
B:------------------------------------------------------------------|
G:---4--4----4--4----4--4----4--4-----8--8----8--8----8--8----8--8--|
D:--6-6--6--6-6--6--6-6--6--6-6--6---9-9--9--9-9--9--9-9--9--9-9--9-|
A:---------6---------------6----------------9---------------9-------|
E:-4---------------4----------------7---------------7---------------|
And people come by, and they look at your face
  	  	  	  	  And they say it's the fairest of all

Chorus:
   C#m/G#           A               E               G#m
E:------------------------------------------------------------------|
B:------------------------------------------------------------------|
G:---6--6----6--6-----6--6----6--6----1--1----1--1----4--4----4--4--|
D:--6-6--6--6-6--6---7-7--7--7-7--7--2-2--2--2-2--2--6-6--6--6-6--6-|
A:-4------------------------7---------------2---------------6-------|
E:---------4--------5---------------0---------------4---------------|
Of course you protect, That's what you do best
  	  	  	  	  And you're modest and shy to the end

   A                C#m/G#          A               B
E:------------------------------------------------------------------|
B:------------------------------------------------------------------|
G:---6--6----6--6-----6--6----6--6----6--6----6--6----8--8----8--8--|
D:--7-7--7--7-7--7---6-6--6--6-6--6--7-7--7--7-7--7--9-9--9--9-9--9-|
A:--------7--------4------------------------7---------------9-------|
E:-5------------------------4-------5---------------7---------------|
You're watching them, as they're looking at you
  	  	  	  	  And you know it was money well spent
   B
E:-------------------|
B:-------------------|
G:---8--8-----8--8---|
D:--9-9--9---9-9--9--|
A:---------9---------|
E:-7-----------------|


E
She told me you'd given up drinking
C#m
To be with somebody you knew
G#m
You tried to get into the bible
A
but it never got into you
E
But you still got some loyal disciples
C#m
I supposed that I'm one of the few
G#m
And I shouldn't have laughed cause I mean you no harm
B
But my friend got to me before you



C#m/G#                  A 
So next time I see you, I'll be pleased to see you
G#m                             E
I hope you'll be pleased to see me
 A                       C#m/G#                         A
I'll visit your picture, I won't have the nerve to tell them 
                 B
they got you all wrong

Outro:  ( E - C#m/G# - G#m - B )

The End
            
Submit corrections

comments powered by Disqus
↑ Back to top | Camera Obscura Tabs for Your Picture. Lyrics for acoustic guitar and electric guitar. 1 Tablatures and chords are parodies/interpretations of the original songs. You may use it for private study, scholarship, research or language learning purposes only